» » »

Are You In? Bass tabs (ver.2)

Artists:  A B C D E F G H I J K L M N O P Q R S T U V W X Y Z # 

Are You In? Bass tabs (ver.2)

Incubus
Rating:
0/5 (0 votes)

Hard to play? Try these video lessons and learn fast.
                Intro 

G-14/16-14/16--------------14h16--14---------------------
D-14/16-14/16--16--------------------16------------------
A-----------------14-------------------------------------
E--------------------------------------------------------


verse

G:-------------------------------------------
D:-----------------------16------------------
A:-------------------------------12-12h14p12-
E:--10-----7--5-5-2/14-----14-12-------------


G:-------------------------------
D:-------------------------------
A:-----------------2-2-1h2-------
E:--10---7--5-5--2---------1-2-0-



chorus
G:-------------------------------------
D:-------------------------------------
A:-------------------------------------   x2
E:-10-10-10-10/5-5-5-5-/2-2-2-2-2-2-2-2

G:-----------------
D:-----------------
A:---0-0---2-2-----
E:-----------------



then this
G:---------------------------
D:-----------5----7----------
A:---------7----9------10-7--
E:--3-0--7----7----7---------



G:-14h16--14---------------------
D:-----------16-/2---------------
A:-------------------------------
E:-------------------------------

verse

G:-------------------------------------------
D:-----------------------16------------------
A:-------------------------------12-12h14p12-
E:--10-----7--5-5-2/14-----14-12-------------


G:-------------------------------
D:-------------------------------
A:-----------------2-2-1h2-------
E:--10---7--5-5--2---------1-2-0-


chorus
G:-------------------------------------
D:-------------------------------------
A:-------------------------------------   x2
E:-10-10-10-10/5-5-5-5-/2-2-2-2-2-2-2-2

G:-----------------
D:-----------------
A:---0-0---2-2-----
E:-----------------

that's it!
            
Hard to play? Try these video lessons and learn fast. | Correct




comments powered by Disqus
↑ Back to top | Tablatures and chords are parodies/interpretations of the original songs. You may use it for private study, scholarship, research or language learning purposes only