» » »

Incubus, A Kiss To Send Us Off Tabs (ver.2)

Artists:  A B C D E F G H I J K L M N O P Q R S T U V W X Y Z # 

A Kiss To Send Us Off Tabs (ver.2)

Incubus Tabs
 Rating:
3.1/5 (27 votes)
A Kiss To Send Us Off lessons Tabs too difficult? Try these video lessons and learn fast
1
                A Kiss to Send Us Off

Intro- Guitar I
E|---------------------------------|
B|-7---------7-7-7-7-------7-8-8-8-|
G|-7-7-7-7-7-7-7-7-7-7-7-7-7-7-7-7-|
D|---5-5-5-5---------5-5-5---------|
A|---------------------------------|
E|---------------------------------| x6

Intro- Guitar II
Enters after second repeat of Intro- Guitar I
E|-------------15------------15----|
B|---------------------------------|
G|--------15h16---------15h16------|
D|---------------------------------|
A|---------------------------------|
E|---------------------------------| x3

Chorus- Guitar I & II
E|-----------------|-----------------|-----------------|
B|-----------------|-----------------|-----------------|
G|-----------------|-----------------|-----------------|
D|-5-5---8---2-2---|-5-5---8---2-2---|-5-5---8---2-2---|
A|-5-5---8---2-2---|-5-5---8---2-2---|-5-5---8---2-2---|
E|-3-3---6---0-0---|-3-3---6---0-0---|-3-3---6---0-0---|

E|-----------------|
B|-----------------|
G|-5-5-5-5---8-8-8-|
D|-5-5-5-5---8-8-8-|
A|-3-3-3-3---6-6-6-|
E|-----------------| x2

Verse- Guitar I- mostly accurate, there is some variation
E|-------------------------|-------------------------|
B|-------------------------|-------------------------|
G|--0--0--0--0--0--0--0--0-|--0--0--0--0--0--0--0--0-|
D|-12-12-12-12-12-12-12-12-|-13-13-13-13-15-15-15-15-|
A|-------------------------|-------------------------|
E|-------------------------|-------------------------|

E|-------------------------|-------------------------|
B|-------------------------|-------------------------|
G|--0--0--0--0--0--0--0--0-|--0--0--0--0--0--0--0--0-|
D|--1--1--1--1--1--1--1--1-|--1--1--1--1-10-10-10-10-|
A|-------------------------|-------------------------|
E|-------------------------|-------------------------|
E|-------------------------|-------------------------|
B|-------------------------|-------------------------|
G|--0--0--0--0--0--0--0--0-|--0--0--0--0--0--0--0--0-|
D|-12-12-12-12-12-12-12-12-|-13-13-13-13-10-10-12-12-|
A|-------------------------|-------------------------|
E|-------------------------|-------------------------|

E|-------------------------|-------------------------|
B|-------------------------|-------------------------|
G|--0--0--0--0--0--0--0--0-|--0--0--0--0--0--0--0--0-|
D|--1--1--1--1--1--1--1--1-|--7--7--7--7--7bu8--8bd7-|
A|-------------------------|-------------------------|
E|-------------------------|-------------------------| x2

Chorus
Interlude-no guitar
Verse
Chorus x2
Intro- Guitar I & II

Interlude- Guitar I
E|---------------------------------|
B|-7---------7-7-7-7-------7-8-8-8-|
G|-7-7-7-7-7-7-7-7-7-7-7-7-7-7-7-7-|
D|---5-5-5-5---------5-5-5---------|
A|---------------------------------|
E|---------------------------------| x4

Interlude- Guitar II
E|-----------------|
B|-----------------|
G|-4-4-4-4-4-4-4-4-|
D|-5-5-5-5-5-5-5-5-|
A|-5-5-5-5-5-5-5-5-|
E|-3-3-3-3-3-3-3-3-| x8

Chorus
Outro- no guitar except for some kind of on-purpose screw-up
            
Submit corrections

comments powered by Disqus
↑ Back to top | Incubus Tabs for A Kiss To Send Us Off. Lyrics for acoustic guitar and electric guitar. 1 Tablatures and chords are parodies/interpretations of the original songs. You may use it for private study, scholarship, research or language learning purposes only