» » »

Incubus, A Kiss To Send Us Off Tabs (ver.1)

Artists:  A B C D E F G H I J K L M N O P Q R S T U V W X Y Z # 

A Kiss To Send Us Off Tabs (ver.1)

Incubus Tabs
Rating:
4/5 (20 votes)
A Kiss To Send Us Off lessons Tabs too difficult? Try these video lessons and learn fast
                Incubus 
A Kiss to Send Us Off 
Standard Tuning 

Updated - 12.5.06 

i couldn't bother w/the strumming pattern.  it wouldn't fit. 

Intro/Bridge 
|------------------------------| 
|------------------------------| 
|-11----0---11----0---11---12--| 
|-12---12---12---12---12---12--| 
|------10--------10------------| 
|------------------------------| 
  1     4   4    3    1    3  
  (# of times to play note) 

 Chorus 
|-----------------|---------------------| 
|-----------------|---------------------| 
|-----------------|-5-5-5-5-5-x-x-8-8-8-| 
|-5-5-/-8-\-2-2-2-|-5-5-5-5-5-x-x-8-8-8-| 
|-5-5-/-8-\-2-2-2-|-3-3-3-3-3-x-x-6-6-6-| 
|-3-3-/-6-\-0-0-0-|---------------------| 

 Verse 
|----------------------------| 
|----------------------------| 
|-0---0---0---0---0---0---0--| 
|-12--13--12--10--12\-1---3--| 
|----------------------------| 
|----------------------------| 
  8   4   1   1   1   13  3  

|-----------------------------------| 
|-----------------------------------| 
|-0---0---0---0---0---0--0-0-0-0-0--| 
|-12--13--12--10--12\-1--7-7-7b8r7--| 
|-----------------------------------| 
|-----------------------------------| 
  8   4   1   1   1   8      

|-----------------|---------------------| 
|-----------------|---------------------| 
|-----------------|-5-5-5-5-5-x-x-8-8-8-| 
|-5-5-/-8-\-2-2-2-|-5-5-5-5-5-x-x-8-8-8-| 
|-5-5-/-8-\-2-2-2-|-3-3-3-3-3-x-x-6-6-6-| 
|-3-3-/-6-\-0-0-0-|---------------------| 

|----------------------------| 
|----------------------------| 
|-0---0---0---0---0---0---0--| 
|-12--13--12--10--12\-1---3--| 
|----------------------------| 
|----------------------------| 
  8   4   1   1   1   13  3    

|-----------------------------------| 
|-----------------------------------| 
|-0---0---0---0---0---0--0----------| 
|-12--13--12--10--12\-1--7-7-7b8r7--| 
|-----------------------------------| 
|-----------------------------------| 
  8   4   1   1   1   8      
  
|-----------------|---------------------| 
|-----------------|---------------------| 
|-----------------|-5-5-5-5-5-x-x-8-8-8-| 
|-5-5-/-8-\-2-2-2-|-5-5-5-5-5-x-x-8-8-8-| 
|-5-5-/-8-\-2-2-2-|-3-3-3-3-3-x-x-6-6-6-| 
|-3-3-/-6-\-0-0-0-|---------------------| 

|-----------------|---------------------| 
|-----------------|---------------------| 
|-----------------|-5-5-5-5-5-x-x-8-8-8-| 
|-5-5-/-8-\-2-2-2-|-5-5-5-5-5-x-x-8-8-8-| 
|-5-5-/-8-\-2-2-2-|-3-3-3-3-3-x-x-6-6-6-| 
|-3-3-/-6-\-0-0-0-|---------------------| 

Breakdown 

|------------------------------| 
|------------------------------| 
|-11----0---11----0---11---12--| 
|-12---12---12---12---12---12--| 
|------10--------10------------| 
|------------------------------| 
|                 (2nd guitar
|----------------|    comes in)
|----------------|       
|----------------|  
|-4---0---4---5--| play to match gtr 1 
|-5---5---5---5--| repeat as necessary
|-3---3---3---3--| 

|-----------------|---------------------| 
|-----------------|---------------------| 
|-----------------|-5-5-5-5-5-x-x-8-8-8-| 
|-5-5-/-8-\-2-2-2-|-5-5-5-5-5-x-x-8-8-8-| 
|-5-5-/-8-\-2-2-2-|-3-3-3-3-3-x-x-6-6-6-| 
|-3-3-/-6-\-0-0-0-|---------------------| 
            
Submit corrections

comments powered by Disqus
↑ Back to top | Incubus Tabs for A Kiss To Send Us Off. Lyrics for acoustic guitar and electric guitar. Tablatures and chords are parodies/interpretations of the original songs. You may use it for private study, scholarship, research or language learning purposes only