» » »

Green Day, Ha Ha You're Dead Tabs (ver.2)

Artists:  A B C D E F G H I J K L M N O P Q R S T U V W X Y Z # 

Ha Ha You're Dead Tabs (ver.2)

Green Day Tabs
 Rating:
4/5 (4 votes)
Ha Ha You're Dead lessons Tabs too difficult? Try these video lessons and learn fast
                Greenday – Ha Ha your'e dead

Intro x2  

E: ----------------------------------------------------------
B: ----------------------------------------------------------
G: -----5-----------------------------------------------------
D: -----5—x8--5----------7---------------------------------------
A: -----3-----5—x8-------7---x16------------------------------------
E: -----------3----------5---------------------------------
 p.m .................................
 Verse x4

E: ----------------------------------------------------------
B: ----------------------------------------------------------
G: -----5-----------------------------------------------------
D: -----5—x8-----5----------7---------------------------------------
A: -----3--------5—x8-------7---x16------------------------------------
E: --------------3----------5---------------------------------
p.m..........................................

Pre chorus x4

E: ----------------------------------------------------------
B: ----------------------------------------------------------
G: ---------------- 5------------------------------------------
D: ----3------------5----5--------------------------------------------
A: ----3---x2-------3----5----x16------------------------------------
E: ----1-----------------3-------------------------------------

Verse x4

E: ----------------------------------------------------------
B: ----------------------------------------------------------
G: -----5-----------------------------------------------------
D: -----5—x8-----5----------7---------------------------------------
A: -----3--------5—x8-------7---x16------------------------------------
E: --------------3----------5---------------------------------
p.m..........................................


Pre chorus x4

E: ----------------------------------------------------------
B: ----------------------------------------------------------
G: ---------------- 5------------------------------------------
D: ----3------------5----5--------------------------------------------
A: ----3---x2-------3----5----x16------------------------------------
E: ----1-----------------3-------------------------------------


Chorus x1

E: ----------------------------------------------------------------------------------
B: ----------------------------------------------------------------------------------
G: --5------------------5---------------------------------------5-----------5-------
D: --5--x8----3---------5—x8---5---------7---------5----3-------5—x4--5-----5--x4----
A: --3--------3--x8-----3------5---x8----7--x8-----5----3--x8---3-----5-x4--3-----
E: -----------1----------------3---------5---------3----1-------------3------------



Riff 

E: ----------------------------------------------------------------------------------
B: ---5-5-5-5--6-6-6-6--5-5-5-5--8-8-8-8--5-5-5-5--6-6-6-6--5-5--3-3----------------
G: ----5-5-5-5--5-5-5-5--5-5-5-5--7-7-7-7--5-5-5-5--5-5-5-5--5-5--4-4—5-5-5-5-5-5-5-5
D: ----------------------------------------------------------------------------------A: ----------------------------------------------------------------------------------
E: -------------------------------------------------------------------------------


Chorus x2   (words change second time round,riff played in bakground)

E: ----------------------------------------------------------------------------------
B: ----------------------------------------------------------------------------------
G: --5---------------5------------------------------------------5------------5----
D: --5--x8----3------5—x8---5---------7---------5----3----------5—x4----5----5—-x4--
A: --3--------3--x8--3------5---x8----7--x8-----5----3---x8-----3-------5-x4-3----
E: -----------1-------------3---------5---------3----1------------------3-------------



Outro: x1
E: ----------------------------------------------- 
B: ------------------------------------------------ 
G:5-5-5-5-----------------------------5-5-5-5-
D:5-5-5-5--5-5-5-5--7-7-7-7--3-3-3-3--5-5-5-5------ 
A:3-3-3-3--5-5-5-5--7-7-7-7--3-3-3-3--3-3-3-3------ 
E: --------3-3-3-3--5-5-5-5--1-1-1-1-----------------------

E: --------------------------------- 
B: --------------------------------- 
G: --------5-5-5-5----5------------
D:5-5-5-5--5-5-5-5----5------------- 
A:5-5-5-5--3-3-3-3----3------------- 
E:3-3-3-3--------------------------- 


Hope you enjoy this song as much as I have. I’m sure it’s 100% correct.
            
Submit corrections

comments powered by Disqus
↑ Back to top | Green Day Tabs for Ha Ha You're Dead. Lyrics for acoustic guitar and electric guitar. Tablatures and chords are parodies/interpretations of the original songs. You may use it for private study, scholarship, research or language learning purposes only