>
 >
Haha You're Dead 1

Haha You're Dead 1 Guitar Tabs

Green Day - Haha You're Dead 1 chords, tabs, tablatures, lyrics

Guitar lessons | Add/correct | Request | Top 50 tabs Artists:  A B C D E F G H I J K L M N O P Q R S T U V W X Y Z 0-9

Haha You're Dead 1 Guitar Tabs – Green Day

CD, Sheet music, Poster

Do you like Haha You're Dead 1? Share with your friends now
TabsTabs v2Tabs v3
Greenday  Ha Ha your'e dead

Intro x2  

E: ----------------------------------------------------------
B: ----------------------------------------------------------
G: -----5-----------------------------------------------------
D: -----5x8--5----------7---------------------------------------
A: -----3-----5x8-------7---x16------------------------------------
E: -----------3----------5---------------------------------
 p.m .................................
 Verse x4

E: ----------------------------------------------------------
B: ----------------------------------------------------------
G: -----5-----------------------------------------------------
D: -----5x8-----5----------7---------------------------------------
A: -----3--------5x8-------7---x16------------------------------------
E: --------------3----------5---------------------------------
p.m..........................................

Pre chorus x4

E: ----------------------------------------------------------
B: ----------------------------------------------------------
G: ---------------- 5------------------------------------------
D: ----3------------5----5--------------------------------------------
A: ----3---x2-------3----5----x16------------------------------------
E: ----1-----------------3-------------------------------------

Verse x4

E: ----------------------------------------------------------
B: ----------------------------------------------------------
G: -----5-----------------------------------------------------
D: -----5x8-----5----------7---------------------------------------
A: -----3--------5x8-------7---x16------------------------------------
E: --------------3----------5---------------------------------
p.m..........................................


Pre chorus x4

E: ----------------------------------------------------------
B: ----------------------------------------------------------
G: ---------------- 5------------------------------------------
D: ----3------------5----5--------------------------------------------
A: ----3---x2-------3----5----x16------------------------------------
E: ----1-----------------3-------------------------------------


Chorus x1

E: ----------------------------------------------------------------------------------
B: ----------------------------------------------------------------------------------
G: --5------------------5---------------------------------------5-----------5-------
D: --5--x8----3---------5x8---5---------7---------5----3-------5x4--5-----5--x4----
A: --3--------3--x8-----3------5---x8----7--x8-----5----3--x8---3-----5-x4--3-----
E: -----------1----------------3---------5---------3----1-------------3------------



Riff 

E: ----------------------------------------------------------------------------------
B: ---5-5-5-5--6-6-6-6--5-5-5-5--8-8-8-8--5-5-5-5--6-6-6-6--5-5--3-3----------------
G: ----5-5-5-5--5-5-5-5--5-5-5-5--7-7-7-7--5-5-5-5--5-5-5-5--5-5--4-45-5-5-5-5-5-5-5
D: ----------------------------------------------------------------------------------A: ----------------------------------------------------------------------------------
E: -------------------------------------------------------------------------------


Chorus x2   (words change second time round,riff played in bakground)

E: ----------------------------------------------------------------------------------
B: ----------------------------------------------------------------------------------
G: --5---------------5------------------------------------------5------------5----
D: --5--x8----3------5x8---5---------7---------5----3----------5x4----5----5-x4--
A: --3--------3--x8--3------5---x8----7--x8-----5----3---x8-----3-------5-x4-3----
E: -----------1-------------3---------5---------3----1------------------3-------------



Outro: x1
E: ----------------------------------------------- 
B: ------------------------------------------------ 
G:5-5-5-5-----------------------------5-5-5-5-
D:5-5-5-5--5-5-5-5--7-7-7-7--3-3-3-3--5-5-5-5------ 
A:3-3-3-3--5-5-5-5--7-7-7-7--3-3-3-3--3-3-3-3------ 
E: --------3-3-3-3--5-5-5-5--1-1-1-1-----------------------

E: --------------------------------- 
B: --------------------------------- 
G: --------5-5-5-5----5------------
D:5-5-5-5--5-5-5-5----5------------- 
A:5-5-5-5--3-3-3-3----3------------- 
E:3-3-3-3--------------------------- 


Hope you enjoy this song as much as I have. Im sure its 100% correct.





Comments


Popular Green Day tabs & chords
The Judge's Daughter 1 Bass Tabs
Dirty Rotten Bastards Chords
Waiting Chords
Warning Chords
21 Guns 7 Tabs
Coming Clean 7 Tabs
Emenius Sleepus 1 Tabs
Espionage 7 Tabs
Last Ride In 2 Tabs
Prosthetic Head  2 Tabs


Song lyrics



↑ Back to top | Tablatures and chords are parodies/interpretations of the original songs. You may use it for private study, scholarship, research or language learning purposes only
© 2014 AZChords.com Contact us | Privacy policy | DMCA | Add/correct tabs | Request tabs | Top 50 tabs