» » »

Ha Ha You're Dead Bass tabs (ver.3)

Artists:  A B C D E F G H I J K L M N O P Q R S T U V W X Y Z # 

Ha Ha You're Dead Bass tabs (ver.3)

Green Day
Rating:
0/5 (0 votes)

Hard to play? Try these video lessons and learn fast.
                greenday - ha, ha you’re dead !
bass
jared jaramillo (midtown_rocker)
these are 100% correct , fo-deal!

intro/verses
G---------------------------------------
D---------------------------------------
A--3*----------------------------------
E----------3*----5*-------------------
pre-chorus
G---------------------------------
D---------------------------------
A-------3------------------------
E--1-1------3*-------------------
chours/bridge
G-------------------------------------------------------------------
D-------------------------------------------------------------------
A--3*-------3*------------------------3*--------3*-------------
E--------1*-------3*---5*---3---1*-------3*--------3333333-
outro
G-------------------------------------------------------------------------------
D-------------------------------------------------------------------------------
A-33-333------------------------------------33-333-------------33-333-3~
E------------333-33---55-555---111-11--------------333-33--------------
            
Hard to play? Try these video lessons and learn fast. | Correct




comments powered by Disqus
↑ Back to top | Tablatures and chords are parodies/interpretations of the original songs. You may use it for private study, scholarship, research or language learning purposes only