» » »

Green Day, Boulevard Of Broken Dreams Tabs (ver.1)

Artists:  A B C D E F G H I J K L M N O P Q R S T U V W X Y Z # 

Boulevard Of Broken Dreams Tabs (ver.1)

Green Day Tabs
Rating:
0/5 (0 votes)
Boulevard Of Broken Dreams lessons Tabs too difficult? Try these video lessons and learn fast
                B O U L E V A R D  O F  B R O K E N  D R E A M S          
                     by
             G R E E N  D A Y 

                                                          
---------------------------------------------------

Standard - Tuning : E A D G B E
CAPO on 1st FRET

Creating the "Tremolo Effect":
   x) Chorus Mod : Rotary Speaker
   x) Reverb - optional level
   x) Noise Gate - optional level
   x) if you have an expression pedal, use it for speed
---------------------------------------------------

I N T R O

Use "Tremolo Effect"                    2x
use effect through the whole song except chorus

     Em      G       Dsus2    Asus2

|----0---0---3---3---0---0---0---0----|
|----0---0---3---3---3---3---0---0----|
|----0---0---0---0---2---2---2---2----|
|----2---2---0---0---0---0---2---2----|
|----2---2---2---2---0---0---0---0----|
|----0---0---3---3-----------0---0----|



V E R S E  
C l e a n                              

     Em      G       Dsus2   Asus2      (Em)

|----0---0---3---3---0---0---0---0----|
|----0---0---3---3---3---3---0---0----|
|----0---0---0---0---2---2---2---2----|
|----2---2---0---0---0---0---2---2----|
|----2---2---2---2---0---0---0---0----|
|----0---0---3---3-----------0---0----|

     I walk alonely road, the only one that I have ever known
     Don't know where it goes, but it's home to me and I walk alone

|-------------------------------|
|--8/9--------13/11----8/9------|
|-------------------------------|
|-------------------------------|
|-------------------------------|
|-------------------------------|

     Em      G       Dsus2   Asus2      (Em)

|----0---0---3---3---0---0---0---0----|
|----0---0---3---3---3---3---0---0----|
|----0---0---0---0---2---2---2---2----|
|----2---2---0---0---0---0---2---2----|
|----2---2---2---2---0---0---0---0----|
|----0---0---3---3-----------0---0----|

    I walk this empty street, on the Boulevard of broken Dreams
    Where the City sleeps, and I'm the only one and I walk alone

|-------------------------------|
|--8/9--------13/11----8/9------|
|-------------------------------|
|-------------------------------|
|-------------------------------|
|-------------------------------|

                      I walk alone, I walk alone
                      I walk alone, I walk a -


C H O R U S
D i s t o r t e d

     C5        G5        D5        A5
|---------------------------------------------|
|---------------------------------------------|
|----5-5-5-5-------------7-7-7-7---2-2-2-2----|
|----5-5-5-5---5-5-5-5---5-5-5-5---2-2-2-2----|
|----3-3-3-3---5-5-5-5---5-5-5-5---0-0-0-0----|
|--------------3-3-3-3------------------------|

        My shadow's the only one that walks beside me
        My shallow hearts the only thing that's beating
        Sometimes I wish someone out there will find me


     C5        G5        A5
|----------------------------------|
|----------------------------------|
|----5-5-5-5-------------5--5-5-5--|
|----5-5-5-5---5-5-5-5---5--5-5-5--|
|----3-3-3-3---5-5-5-5---3--3-3-3--|
|--------------3-3-3-3-------------|

       Till then I walk alone



V E R S E
C l e a n                              

     Em      G       Dsus2   Asus2      (Em)

|----0---0---3---3---0---0---0---0----|
|----0---0---3---3---3---3---0---0----|
|----0---0---0---0---2---2---2---2----|
|----2---2---0---0---0---0---2---2----|
|----2---2---2---2---0---0---0---0----|
|----0---0---3---3-----------0---0----|


     Ah-ah   ah-ah   ah-ah   aaah-ah
     Ah-ah      ah-ah      ah-ah    

     I'm walking down the line that divides me somewhere in my mind
     On the border line of the edge and where I walk alone

|-------------------------------|
|--8/9--------13/11----8/9------|
|-------------------------------|
|-------------------------------|
|-------------------------------|
|-------------------------------|

     Em      G       Dsus2   Asus2      (Em)

|----0---0---3---3---0---0---0---0----|
|----0---0---3---3---3---3---0---0----|
|----0---0---0---0---2---2---2---2----|
|----2---2---0---0---0---0---2---2----|
|----2---2---2---2---0---0---0---0----|
|----0---0---3---3-----------0---0----|

     Read between the lines what's f**ked up and everything's all right
     Check my vital signs, to know I'm still alive and I walk alone

|-------------------------------|
|--8/9--------13/11----8/9------|
|-------------------------------|
|-------------------------------|
|-------------------------------|
|-------------------------------|

                      I walk alone, I walk alone
                      I walk alone, I walk a -



C H O R U S
D i s t o r t e d

     C5        G5        D5        A5
|---------------------------------------------|
|---------------------------------------------|
|----5-5-5-5-------------7-7-7-7---2-2-2-2----|
|----5-5-5-5---5-5-5-5---5-5-5-5---2-2-2-2----|
|----3-3-3-3---5-5-5-5---5-5-5-5---0-0-0-0----|
|--------------3-3-3-3------------------------|

        My shadow's the only one that walks beside me
        My shallow hearts the only thing that's beating
        Sometimes I wish someone out there will find me

     C5        G5        A5
|----------------------------------|
|----------------------------------|
|----5-5-5-5-------------5--5-5-5--|
|----5-5-5-5---5-5-5-5---5--5-5-5--|
|----3-3-3-3---5-5-5-5---3--3-3-3--|
|--------------3-3-3-3-------------|

          Till then I walk alone


C l e a n                              

     Em      G       Dsus2   Asus2      (Em)

|----0---0---3---3---0---0---0---0----|
|----0---0---3---3---3---3---0---0----|
|----0---0---0---0---2---2---2---2----|
|----2---2---0---0---0---0---2---2----|
|----2---2---2---2---0---0---0---0----|
|----0---0---3---3-----------0---0----|


     Ah-ah   ah-ah   ah-ah   aaah-ah
     Ah-ah   ah-ah   ah-ah  



S O L O  

Play Riff 3 Times

|-----------------------------------------|
|---6-----8/9--------13/11----8/9-----9---|
|-----------------------------------------|
|-----------------------------------------|
|-----------------------------------------|
|-----------------------------------------|

Then

|-----------------------------------------|
|---6-----8/9-----11/13-13-13-13-13-13----|
|-----------------------------------------|
|-----------------------------------------|
|-----------------------------------------|
|-----------------------------------------|



C l e a n

     Em      G       Dsus2   Asus2      (Em)

|----0---0---3---3---0---0---0---0----|
|----0---0---3---3---3---3---0---0----|
|----0---0---0---0---2---2---2---2----|
|----2---2---0---0---0---0---2---2----|
|----2---2---2---2---0---0---0---0----|
|----0---0---3---3-----------0---0----|


    I walk this empty street, on the Boulevard of broken Dreams
    Where the City sleeps, and I'm the only one and I walk a - 


D i s t o r t e d

     C5        G5        D5        A5
|---------------------------------------------|
|---------------------------------------------|
|----5-5-5-5-------------7-7-7-7---2-2-2-2----|
|----5-5-5-5---5-5-5-5---5-5-5-5---2-2-2-2----|
|----3-3-3-3---5-5-5-5---5-5-5-5---0-0-0-0----|
|--------------3-3-3-3------------------------|

        My shadow's the only one that walks beside me
        My shallow hearts the only thing that's beating
        Sometimes I wish someone out there will find me

     C5        G5        A5
|----------------------------------|
|----------------------------------|
|----5-5-5-5-------------5--5-5-5--|
|----5-5-5-5---5-5-5-5---5--5-5-5--|
|----3-3-3-3---5-5-5-5---3--3-3-3--|
|--------------3-3-3-3-------------|

          Till then I walk alone


O U T R O                                       2x

   Em      C       Dsus2   A/G     G       A/Ab

|--0--0-0--0--0-0--0--0-0--0--0-0--3--3-3--0--0-0--|
|--0--0-0--1--1-1--3--3-3--2--2-2--3--3-3--0--0-0--|
|--0--0-0--0--0-0--2--2-2--0--0-0--0--0-0--2--2-2--|
|--2--2-2--2--2-2--0--0-0--2--2-2--0--0-0--1--1-1--|
|--2--2-2--3--3-3--0--0-0--0--0-0--2--2-2--2--2-2--|
|--0--0-0--0--0-0------------------3--3-3--0--0-0--|



Pretty cool song! Quiet easy, have fun!
            

comments powered by Disqus
↑ Back to top | Green Day Tabs for Boulevard Of Broken Dreams. Lyrics for acoustic guitar and electric guitar. Tablatures and chords are parodies/interpretations of the original songs. You may use it for private study, scholarship, research or language learning purposes only