» » »

Green Day, Ha Ha You're Dead Bass tabs (ver.1)

Artists:  A B C D E F G H I J K L M N O P Q R S T U V W X Y Z # 

Ha Ha You're Dead Bass tabs (ver.1)

Green Day Tabs
 Rating:
4/5 (4 votes)
Ha Ha You're Dead lessons Tabs too difficult? Try these video lessons and learn fast
1
                Band Green Day 
Song Ha Ha You're Dead



inro/verse

g---------------------------------------------|--------------
d---------------------------------------------|--------------
a--33333333-----------------------------------|---------------
e------------33333333----5555-5555-5555-5555--|-5555-5555-5555-

pre chours

g------------------------------------------------
d------------------------------------------------
a----3--------------------------------------------
e-13----33333333333--------------------------------


chours

g-----------------------------------------------------------------
d-----------------------------------------------------------------
a--3333-3333-3333-3333----------------------------------------------
e----------------------1111-1111-1111-1111----------------------------


g--------------------------------------------------------------------
d-------------------------------------------------------------------
a--3333-3333-3333-3333--------------------------------------------
e-------------------------3333-3333-3333-----------------------------


g-----------------------|---|-------------------------------------
d-----------------------|---|--------------------------------------
a-----------------------|---|--------------------------------------
e---5555-5555-5555-5555-|5-3|-1111-1111-1111-1111-------------------

g------------------------------------------------------------------
d-------------------------------------------------------------------
a---3333-3333------------3333-3333-----------------------------------
e--------------3333-3333------------3333-3333-------------------------

this is the aprt that most people foreget about/ it comes it towords the end you can tell when

g-------------------------------------------------------------------
d------------------------------------------------------------------
a--3333-3333--------------------------------------------------------
e------------3333-3333-5555-5-5-3-3----1111-1111--------------------


g-----------------------------------------------------------------------
d--------------------------------------------------------------------------
a--3333-3333-----------3333-3333--3-5-----------------------------------------------
e------------3333-3333-----------------------------------------------------------
            
Submit corrections

comments powered by Disqus
↑ Back to top | Green Day Bass for Ha Ha You're Dead. Lyrics for acoustic guitar and electric guitar. 1 Tablatures and chords are parodies/interpretations of the original songs. You may use it for private study, scholarship, research or language learning purposes only