» » »

Green Day, She Tabs (ver.1)

Artists:  A B C D E F G H I J K L M N O P Q R S T U V W X Y Z # 

She Tabs (ver.1)

Green Day Tabs
Rating:
0/5 (0 votes)
She lessons Tabs too difficult? Try these video lessons and learn fast
                1st Verse
Eb||----------------------|
Bb||----------------------|
Gb||----------------------|
Db||---5555555555555555---|
Ab||---5555555555555555---|
Eb||---3333333333333333---|
  P.M.________________

Chorus
Eb||----------------------|----------------------|----------------------|
Bb||----------------------|----------------------|----------------------|
Gb||---7-7-7-7-7-7-7-7----|-----5-5-5-5-5-5------|----------------------|
Db||---7-7-7-7-7-7-7-7----|-----5-5-5-5-5-5------|-----5-5-5-5-5-5------|
Ab||---5-5-5-5-5-5-5-5----|-----3-3-3-3-3-3------|-----5-5-5-5-5-5------|
Eb||----------------------|----------------------|-----3-3-3-3-3-3------|



Eb||----------------------|----------------------|----------------------|
Bb||----------------------|----------------------|----------------------|
Gb||---7-7-7-7-7-7-7-7----|-----5-5-5-5-5-5------|----------------------|
Db||---7-7-7-7-7-7-7-7----|-----5-5-5-5-5-5------|-----5-5-5-5-5-5------|
Ab||---5-5-5-5-5-5-5-5----|-----3-3-3-3-3-3------|-----5-5-5-5-5-5------|
Eb||----------------------|----------------------|-----3-3-3-3-3-3------|


Eb||----------------------|----------------------|----------------------|
Bb||----------------------|----------------------|----------------------|
Gb||-----5-5-5-5-5-5------|----------------------|-----5-5-5-5-5-5------|
Db||-----5-5-5-5-5-5------|-----5-5-5-5-5-5------|-----5-5-5-5-5-5------|
Ab||-----3-3-3-3-3-3------|-----5-5-5-5-5-5------|-----3-3-3-3-3-3------|
Eb||----------------------|-----3-3-3-3-3-3------|----------------------|



Eb||----------------------|----------------------|----------------------|
Bb||----------------------|----------------------|----------------------|
Gb||----------------------|-----5-5-5-5-5-5------|----------------------|
Db||-----5-5-5-5-5-5------|-----5-5-5-5-5-5------|-----5-5-5-5-5-5------|
Ab||-----5-5-5-5-5-5------|-----3-3-3-3-3-3------|-----5-5-5-5-5-5------|
Eb||-----3-3-3-3-3-3------|----------------------|-----3-3-3-3-3-3------|



Eb||----------------------|
Bb||----------------------|
Gb||---7-7-7-7-7-7-7-7----|
Db||---7-7-7-7-7-7-7-7----|
Ab||---5-5-5-5-5-5-5-5----|
Eb||----------------------|


2nd Verse - IMPORTANT - The 2nd verse is the bridge, but its not palm 
muted in the guitar solo and is played at about 1/2 as fast.
Eb||----------------------|----------------------|----------------------|
Bb||----------------------|----------------------|----------------------|
Gb||----------------------|-------77777777-------|-------55555555-------|
Db||-------55555555-------|-------77777777-------|-------55555555-------|
Ab||-------55555555-------|-------55555555-------|-------33333333-------|
Eb||-------33333333-------|----------------------|----------------------|
P.M.____________________________________________________________________


Eb||----------------------|
Bb||----------------------|
Gb||---------55-----------|
Db||-------55555555-------|
Ab||-------55335555-------|
Eb||-------33--3333-------|
P.M.______________________

Finally, end on
Eb||------|
Bb||------|
Gb||------|
Db||-5----|
Ab||-5----|
Eb||-3----|
            
Submit corrections

comments powered by Disqus
↑ Back to top | Green Day Tabs for She. Lyrics for acoustic guitar and electric guitar. Tablatures and chords are parodies/interpretations of the original songs. You may use it for private study, scholarship, research or language learning purposes only