» » »

Green Day, When I Come Around Tabs (ver.1)

Artists:  A B C D E F G H I J K L M N O P Q R S T U V W X Y Z # 

When I Come Around Tabs (ver.1)

Green Day Tabs
Rating:
0/5 (0 votes)
When I Come Around lessons Tabs too difficult? Try these video lessons and learn fast
                PROPS GO TO: Kaitlin Brown


*~*WHEN I COME AROUND BY GREENDAY*~*

E]---------------------------  \
B]---------------------------   \
G]-----------6-6-6-x-x-x-8-4-    \ 
D]-4-4-4-x-x-6-6-6-x-x-x-8-4-    / 
A]-4-4-4-x-x-4-4-4-x-x-x-6-2-   /
E]-2-2-2-x-x-4-4-4-x-x-x-6-2-  /
REPEAT 11 TIMES

THEN PLAY:
E]---------------------------------------------  \
B]---------------------------------------------   \ 
G]---------------------------------------------    \
D]-6-6-6-66-6-6-6-8-9----6-6-6-66-6-6-6-8-9----    /
A]-6-6-6-66-6-6-6-8-9----6-6-6-66-6-6-6-8-9----   / 
E]-4-4-4-44-4-4-4-6-7----4-4-4-44-4-4-4-6-7----  /

REPEAT THE 1ST PART 11 TIMES AGAIN AND THEN THE SECOND PART AGAIN

THEN PLAY THE FIRST PART 4 TIMES AND THEN THE SECOND PART AGAIN          
                                                                            
PLAY THE 1ST PART 4 TIMES AND HOLD LAST CHORD FOR 11 COUNTS ('TIL THE END) 
                                                                           
GUITAR SOLO:                                                              
E]-----6------------------                             
B]-7-------7----799764----                            
G]--6-6-------6-----------                            
D]---6--------------------                           
A]------------------------                          
E]------------------------                        
(THIS SOLO IS PLAYED BETWEEN PLAYING THE MAIN PART [THE 1ST PART] FOR THE 24TH TIME AND THE 2ND PART FOR THE LAST TIME, WHILE BILLY JO KEEPS PLAYING THE MAIN PART [THE SOLO MUST BE PLAYED BY A BACK-UP GUITARIST, OR THE BASSIST].)

*LYRICS*

I heard you crying loud,
all the way across town
You've been searching for that someone,
and it's me out on the prowl
As you sit around feeling sorry for yourself
Don't get lonely now
Dry your whining eyes
I'm just roaming for the moment
Sleazin' my back yard so don't get so uptight
you been thinking about ditching me

No time to search the world around
Cause you know where I'll be found
When I come around

I heard it all before
So don't knock down my door
I'm a loser and a user so I don't need no accuser
to try and slag me down because I know I'm right
So go do what you like
Make sure you do it wise
You may find out that your selfdoubt means nothing
was ever there

You can't go forcing something if it's just
not right

No time to search the world around
Cause you know where I'll be found
When I come around (2 times)
When I come around (several times) 
           
     _  __    _ _  _   _  _    _ 
*~*~| |/ /___|_| || | |_||  \ | |~*~*
    | | //   \_| |_ |  _ |   \| | 
    |   \| 4 |_   _|| | || |\ \ |
    | |\ \ | | | || |_|_|| | \  |
    |_| \_\| | | ||_____||_|  \_|
            
Submit corrections

comments powered by Disqus
↑ Back to top | Green Day Tabs for When I Come Around. Lyrics for acoustic guitar and electric guitar. Tablatures and chords are parodies/interpretations of the original songs. You may use it for private study, scholarship, research or language learning purposes only