» » »

Ha Ha You're Dead Tabs (ver.1)

Artists:  A B C D E F G H I J K L M N O P Q R S T U V W X Y Z # 

Ha Ha You're Dead Tabs (ver.1)

Green Day
Rating:
0/5 (0 votes)

Hard to play? Try these video lessons and learn fast.
                Shenanigans by Green Day (out July 2nd)

Notes: The tab is correct and I defy anyone to do it better 
97% of the lyrics are correct, when the album comes out i'll update the 
correct ones

Intro/Verse (Dist) (pm)

|-----------------------------------------|
|-----------------------------------------|
|--55555555-------------------------------|
|--55555555-55555555--77777777------------|
|--33333333-55555555--77777777------------|
|-----------33333333--55555555------------|

How do you get your sleep at night?
How did you get your noose so tight
I’m chewin’ on tinfoil, it’s so much fun
Gonna be dead before you’re gone

(no pm)
|-----------------------------------------|
|-----------------------------------------|
|------5----------------------------------|
|-3-3--5--5-5-5-5-5-5-5-5-----------------|
|-3-3--3--5-5-5-5-5-5-5-5-----------------|
|-1-1-----3-3-3-3-3-3-3-3-----------------|


Cuz look how things have gotten
And I’ll be happy so i wont pretend
And I’ll be cheering as you’re goin’ down
And I’ll be laughing…

Verse 2 (pm)
|-----------------------------------------|
|-----------------------------------------|
|--55555555-------------------------------|
|--55555555-55555555--77777777------------|
|--33333333-55555555--77777777------------|
|-----------33333333--55555555------------|

How many feelings can you steal?
It’s gotta be part of your appeal
I can see through you because you’re wearing thin
Like chewing on tinfoil once again
(back to pre chorus)

Chorus:
|---------------------------------------------------|
|---------------------------------------------------|
|--5-5-5-5-5-5-5-5------------------5-5-5-5-5-5-5---|
|--5-5-5-5-5-5-5-5-3-3-3-3-3-3-3-3--5-5-5-5-5-5-5---|
|--3-3-3-3-3-3-3-3-3-3-3-3-3-3-3-3--3-3-3-3-3-3-3---|
|------------------1-1-1-1-1-1-1-1------------------|

|---------------------------------------------------|
|---------------------------------------------------|
|---------------------------------------------------|
|-5-5-5-5-5-5-5-5--7-7-7-7-7-7-7-7--5--3-3-3-3-3-3-3|
|-5-5-5-5-5-5-5-5--7-7-7-7-7-7-7-7--5--3-3-3-3-3-3-3|
|-3-3-3-3-3-3-3-3--5-5-5-5-5-5-5-5--3--1-1-1-1-1-1-1|

|--------------------------------------|
|--------------------------------------|
|-5-5-5-5-----------5-5-5-5------------|
|-5-5-5-5--5-5-5-5--5-5-5-5-55555555---|
|-3-3-3-3--5-5-5-5--3-3-3-3-55555555---|
|----------3-3-3-3----------33333333---|

Chorus:
Ha Ha You’re Dead and Im so happy,
In loving memory of your demise
When your ship is goin down I’ll go out and paint the town
Ha ha you’re dead, ha ha you’re dead, ha ha you’re dead

Guitar Solo: (over chorus chords)
|---------------------------------------------------|
|--5-5-5-5--6-6-6-6--5-5-5-5--8-8-8-8--5-5-5-5------|
|---5-5-5-5--5-5-5-5--5-5-5-5--7-7-7-7--5-5-5-5-----|
|---------------------------------------------------|
|---------------------------------------------------|
|---------------------------------------------------|

|---------------------------------------------------|
|-6-6-6-6--5-5---3-3--------------------------------|
|--5-5-5-5--5-5---4-4--555555555--------------------|
|---------------------------------------------------|
|---------------------------------------------------|
|---------------------------------------------------|



(back to chorus)

Chorus 2: (same chords, different lyrics,solo played in background)
Ha Ha you’re dead, the joke is over
You were an a**hole and now you’re gone
As your ship is goin down I’ll stand by and watch you drown
Ha Ha Youre Dead Ha Ha you’re dead, ha ha you’re dead

Outro:
|---------------------------------------------------|
|---------------------------------------------------|
|--5-5-5-5-----------------------------5-5-5-5------|
|--5-5-5-5--5-5-5-5--7-7-7-7--3-3-3-3--5-5-5-5------|
|--3-3-3-3--5-5-5-5--7-7-7-7--3-3-3-3--3-3-3-3------|
|-----------3-3-3-3--5-5-5-5--1-1-1-1---------------|

|------------------------------------|
|------------------------------------|
|-----------5-5-5-5----5-------------|
|--5-5-5-5--5-5-5-5----5-------------|
|--5-5-5-5--3-3-3-3----3-------------|
|--3-3-3-3---------------------------|


Outro: (different words, chords change slightly)
Ha ha you’re dead you’re gonna be dead, 
Just remember what I said
Ha ha you’re dead, ha ha you’re dead, ha ha you’re dead
            
Hard to play? Try these video lessons and learn fast. | Correct




comments powered by Disqus
↑ Back to top | Tablatures and chords are parodies/interpretations of the original songs. You may use it for private study, scholarship, research or language learning purposes only