» » »

Lemon Meringue Tie Tabs (ver.2)

Artists:  A B C D E F G H I J K L M N O P Q R S T U V W X Y Z # 

Lemon Meringue Tie Tabs (ver.2)

Dance Gavin Dance
Rating:
3/5 (2 votes)

Hard to play? Try these video lessons and learn fast.
                This isn't perfect but its the general idea of the song, feel free to use this in any 
you ever could possibly imagine. The lyrics for the part of the song are ABOVE the tab.
You can play in drop D or standard, there really aren't any places you need any specific tuning.

caught between one thick line, I can never see in the dark
----------------------------------------------------------|
----------------------10h12p10----------------------------|
----------------11-12-------------11\9--7--4/7--7---------|
--12-9----------------------------------------------------| x4
--------12-10---------------------------------------------|
----------------------------------------------------------|


can you see at all?
tremelo picking
---10----9------10----9-------|
------------------------------|
------------------------------|
------------------------------|
------------------------------|
------------------------------|


and now you go
Slip me the vicodin
this world is upside down
night at the symphony, the bar is closing down
slip me an antidote, empty the cashbox out
---------------------12-----------------------------------------12--------------------|
---------12\10/12-15----15-12--10---10b^10-8--------12\10/12-15----15-12--------------|
---12-14--------------------------------------12-14----------------------14-11--11----|  x4
--------------------------------------------------------------------------------------|
--------------------------------------------------------------------------------------|
--------------------------------------------------------------------------------------|


------------------------12------12------12------10------------------------------------|
-------------------10-------10------10------10----------------------------------------|
------9----11---12----12--12--12--12--12--12--12--------------------------------------|
--------------------------------------------------------------------------------------|
--------------------------------------------------------------------------------------|
--------------------------------------------------------------------------------------|


and now you go
Slip me the vicodin
this world is upside down
night at the symphony, the bar is closing down
slip me an antidote, empty the cashbox out
---------------------12-----------------------------------------12--------------------|
---------12\10/12-15----15-12--10---10b^10-8--------12\10/12-15----15-12--------------|
---12-14--------------------------------------12-14----------------------14-11--11----|  x3
--------------------------------------------------------------------------------------|
--------------------------------------------------------------------------------------|
--------------------------------------------------------------------------------------|


Prechorus
I dont know whyyyy
--------------------------------------------------------------------------------------|
--------------------------------------------------------------------------------------|
---------------------11-11-11-9-9-9-7-7-7-2-2-2-4-4-4---------------------------------|
--5-5-5-5-----------------------------------------------------------------------------|
--3-3-3-3-----------------------------------------------------------------------------|
--------------------------------------------------------------------------------------|


I don't know why, I dont know why, I fight for you this way
Take the call and quickly lie about who you've been seeing lately
then forget about it all
--7--10--17--15-14--10--12--5-7-0-7-0-7-0-7-0-7-0-7-10-17-15-14-10-12----14-----------|
--------------------------------------------------------------------------------------|
--------------------------------------------------------------------------------------|
--------------------------------------------------------------------------------------|
--------------------------------------------------------------------------------------|
--------------------------------------------------------------------------------------|

Stage lights are burning up, running faster to this spot, staring at these faces, torn 
all these

places, and I wont go.
{Mess around on high notes in the key im too lazy to do this part, something around 
notes}
------------------------12--15--14---------------15-14-10-------|
--------12-----10-----------------------------------------------|
------------12----11-12-----------------------------------------|
---12-0---------------------------------------------------------|
----------------------------------------------------------------|
----------------------------------------------------------------|


Mace yourself, blame someone else
fall face down fluid leaking out your eyeballs
its okay no one will believe you
{I think thats it, figure out the rhythm its easy}
--------------------------------------------------------------------------------------|
--------------------------------------------------------------------------------------|
-----------------------------------10-------------------------------------------------|
--10-------------------------------10-------------------------------------------------|
--7--------------------------------7--------------------------------------------------|
--7--------------------------------7--------------------------------------------------|

--------------------------------------------------------------------------------------|
--------------------------------------------------------------------------------------|
--------------------------------------------------------------------------------------|
--------------------------------------------------------------------------------------|
--10/17-17-17\10-10-10----------------------------------------------------------------|
--------------------------------------------------------------------------------------|


---------------------12-----------------------------------------12--------------------|
---------12\10/12-15----15-12--10---10b^10-8--------12\10/12-15----15-12--------------|
---12-14--------------------------------------12-14----------------------14-11--11----|
--------------------------------------------------------------------------------------|
--------------------------------------------------------------------------------------|
--------------------------------------------------------------------------------------|

Then chorus, 'breakdown', thats it
            
Hard to play? Try these video lessons and learn fast. | Correct




comments powered by Disqus
↑ Back to top | Tablatures and chords are parodies/interpretations of the original songs. You may use it for private study, scholarship, research or language learning purposes only