» » »

Lemon Meringue Tie Tabs (ver.1)

Artists:  A B C D E F G H I J K L M N O P Q R S T U V W X Y Z # 

Lemon Meringue Tie Tabs (ver.1)

Dance Gavin Dance
Rating:
4/5 (6 votes)

Hard to play? Try these video lessons and learn fast.
                -------------------------------------------------------------------
-------------------------------------------------------------------

Tuning: Drop D

Intro
Right Guitar 
e|-----------------------------------------------|
B|-----------------10h12p10----------------------|
G|-----------11h12-----------11\9----------------|x4
D|---12-9-------------------------12-9/12-12-----|
A|--------10-------------------------------------|
D|-----------------------------------------------|
Left Guitar
e|--------------------------------------------------|
B|--------------------------------------------------|
G|----------------------------------11p9p7-9/11-----|x2
D|---12-14---9h12-9h12-9h12--12-14--------------9---|
A|--------------------------------------------------|
D|--------------------------------------------------|
             . .  . .  . .
Both guitars (fast picking)
       "can you see at all..."
e|--------------------------------------------|
B|---15---12---15---12---15---12---15---12----|
G|--------------------------------------------|
D|--------------------------------------------|
A|--------------------------------------------|
D|--------------------------------------------|

0:24  Left guitar
e|-------------------------12-----------------|
B|--7h10-12p10-12/15p12-15----15-12-10^\8-----|
G|--------------------------------------------|x8
D|--------------------------------------------|
A|--------------------------------------------|
D|--------------------------------------------|
0:31  Right Guitar   "and now you go..."
e|-------------12-----------------------------14-14^-\10---|
B|----------------15-12-10^\8--------------12--------------|
G|--9-999~------------------------9-999~-------------------|
D|--9-999~------------------------9-999~-------------------|
A|--7-777~------------------------7-777~-------------------|
D|---------------------------------------------------------|
Right Guitar plays this twice then goes back to the previous riff.
e|-------------------------12-----------------|
B|--7h10-12p10-12/15p12-15----15-12-10^\8-----|
G|--------------------------------------------|x8
D|--------------------------------------------|
A|--------------------------------------------|
D|--------------------------------------------|


0:48 Left guitar
e|----------------------12-------12-------12-------12---|
B|----------------10----------10-------10-------10------|
G|---9~--11~---12----12----12-------12-------12---------|x1
D|------------------------------------------------------|
A|------------------------------------------------------|
D|------------------------------------------------------|

1:12   
e|-----------------------------------------------------------|
B|-----------------------------------------------------------|
G|--------------------------------11-11-11-999-777-----------|
D|---1010101010101010--77777777--------------------7777/99---|
A|---1010101010101010--77777777------------------------------|
D|---1010101010101010--77777777------------------------------|

Chorus
  "i don't know why..." 
e|---------17-15-14-----------------------------|
B|---12-15----------15-12-15-10-12-12p0-12p0----|
G|----------------------------------------------|
D|----------------------------------------------|
A|----------------------------------------------|
D|----------------------------------------------|
        "fight for you this way..."             |x2
e|---------17-15-14-----------------------------|
B|---12-15----------15-17-19--------------------|
G|----------------------------------------------|
D|----------------------------------------------|
A|----------------------------------------------|
D|----------------------------------------------|

If you wanna play chords during the chorus...try these
e|-------------------------------------------------|
B|-------------------------------------------------|
G|-------------------------------------------------|
D|---1010101010101010-77777777-22222222-55555555---|
A|---1010101010101010-77777777-22222222-55555555---|
D|---1010101010101010-77777777-22222222-55555555---|

Not sure about this part
"stage lights are burning up..."
e|-------------------------------------15p14-----|
B|--------15p12-15p12-10\8-10/12-15p12-----------|
G|-----------------------------------------------|
D|---12p9----------------------------------------|
A|-----------------------------------------------|
D|-----------------------------------------------|

    "mace yourself...blame someone else...Fall face down
    fluid leaking from your eyeballs..."
e|------------------------------------------------------|
B|------------------------------------------------------|
G|------------------------------------------------------|
D|---1010101010-1010101010-1010-1010-1010101010101010---|
A|---1010101010-1010101010-1010-1010-1010101010101010---|
D|---1010101010-1010101010-1010-1010-1010101010101010---|
   "mace yourself...blame someone else... it's ok
    no one will believe you now..."
e|---1414141414-1414141414-1414-1414-1414141414141414---|
B|---x-x-x-x-x--x-x-x-x-x--x-x--x-x--x-x-x-x-x-x-x-x----|
G|---x-x-x-x-x--x-x-x-x-x--x-x--x-x--x-x-x-x-x-x-x-x----|
D|---1010101010-1010101010-1010-1010-1010101010101010---|
A|---1010101010-1010101010-1010-1010-1010101010101010---|
D|---1010101010-1010101010-1010-1010-1010101010101010---|
    "mace yourself...blame someone else...Fall face down
    fluid leaking from your eyeballs..."
e|---121212122-1212121212-1414-1414-1414141414141414----|
B|---x-x-x-x-x--x-x-x-x-x--x-x--x-x--x-x-x-x-x-x-x-x----|
G|---x-x-x-x-x--x-x-x-x-x--x-x--x-x--x-x-x-x-x-x-x-x----|
D|---1010101010-1010101010-1010-1010-1010101010101010---|
A|---1010101010-1010101010-1010-1010-1010101010101010---|
D|---1010101010-1010101010-1010-1010-1010101010101010---|
    "mace yourself...blame someone else... it's ok
    no one will believe you now..."
e|---1414141414-1414141414-1414-1414-1414141414141414---|
B|---x-x-x-x-x--x-x-x-x-x--x-x--x-x--x-x-x-x-x-x-x-x----|
G|---x-x-x-x-x--x-x-x-x-x--x-x--x-x--x-x-x-x-x-x-x-x----|
D|---1010101010-1010101010-1010-1010-1010101010101010---|
A|---1010101010-1010101010-1010-1010-1010101010101010---|
D|---1010101010-1010101010-1010-1010-1010101010101010---|

  "and i believe they're not okay...i won't go back..."
e|----------------------------------------------|
B|----------------------------------------------|
G|----------------------------------------------|
D|---5/12-12-12-12\5-5-5------------------------|
A|----------------------------------------------|
D|----------------------------------------------|
3:06 Left guitar
e|-----------------------------12---------------|
B|---7h10-10-12-10-12/15-12-15----15-12-10^-8---|
G|----------------------------------------------|
D|----------------------------------------------|
A|----------------------------------------------|
D|----------------------------------------------|
                                                |
e|-----------------------------12---------------|
B|---7h10-10-12-10-12/15-12-15----15------------|
G|-----------------------------------11-11^-----|
D|----------------------------------------------|
A|----------------------------------------------|
D|----------------------------------------------|
3:12 Right guitar
e|-------------------------------------------------|
B|-------------------------------------------------|
G|-------------------------------------------------|
D|---1010101010101010-77777777-22222222-55555555---|
A|---1010101010101010-77777777-22222222-55555555---|
D|---1010101010101010-77777777-22222222-55555555---|

Repeat Chorus



************************************

| /   slide up
| \   slide down
| h   hammer-on
| p   pull-off
| ~   vibrato
| +   harmonic
| x   Mute note
| b   Bend
| pb  Pre-bend
| br  Bend release
| pbr Pre-bend release
| brb Bend release bend

************************************
            
Hard to play? Try these video lessons and learn fast. | Correct




comments powered by Disqus
↑ Back to top | Tablatures and chords are parodies/interpretations of the original songs. You may use it for private study, scholarship, research or language learning purposes only