» » »

Nasa Bass tabs (ver.1)

Artists:  A B C D E F G H I J K L M N O P Q R S T U V W X Y Z # 

Nasa Bass tabs (ver.1)

Dance Gavin Dance
Rating:
0/5 (0 votes)

Hard to play? Try these video lessons and learn fast.
                			     NASA-Dance Gavin Dance


This is a great song and very fun to play... I'm pretty sure it's all correct, but if 
see something that is off, let me know so I can fix it please.

<3

Tuning:Drop D

G|------9--7------------7-----------------------------------4--2--5-5-4h5/10--|
D|-10---------10--9-------10--9--7-----10--9--7/2-2-5-5-----------------------|x4
A|----------------------------------------------------------------------------|
D|----------------------------------------------------------------------------|

G|-----------------------------------------------------------------------------------------------|
D|-----------------------------------------------------------------------------------------------|
A|--3-3-3---3-3-3---3-3-3---3-3-3---3-3-3--3-3-3---3-3-3---3-3-3---3-3-3---3-3-3---3-3-3--3-3-3--|
D|-----------------------------------------------------------------------------------------------|

G|--7-7---------------------------7-7-----------------------|
D|-------9-9-7-7----------------------9-9-7-7---------------|
A|-----------------7-7--7-7-7-7----------------7-7--7/14\7--|
E|----------------------------------------------------------|

G|-----------------------------------------------------------------------------------------------|
D|-----------------------------------------------------------------------------------------------|
A|--3-3-3---3-3-3---3-3-3---3-3-3---3-3-3--3-3-3---3-3-3---3-3-3---3-3-3---3-3-3---3-3-3--3-3-3--|
D|-----------------------------------------------------------------------------------------------|

G|--7-7---------------------------7-7-----------------------|
D|-------9-9-7-7----------------------9-9-7-7---------------|
A|-----------------7-7--7-7-7-7----------------7-7--7/14\7--|
E|----------------------------------------------------------|

G|-----------------|
D|-----------------|    X2
A|--3/12\----------|
D|----------5------|

G|---------------------------------------------------------------------------|
D|---------------------------------------------------------------------------|x2
A|--3-3-3--3-3-3--3-3-3-3-3-3-3-3--3-3-3--3-3-3------------------------------|
D|------------------------------------------------------5h7--5h7--5h7--5/17--|

G|------------------------7-4-----------------------------------|
D|-----------------------------7-5-7\-----------------5------5--|
A|--5-----5h7-5h7-5h7----------------2h3-2h3-2h3----7-5---7-----|
D|--------------------------------------------------------------|

G|-----------------------------------------------------------|
D|-----------------12/14-12------------------------5------5--|
A|--5h7-5h7-5h7-------------14-12\-2h3-2h3-2h3---7-5---------|
D|-----------------------------------------------------------|

G|--------------------------------------------------------------------|
D|---------------------------------------------------------------4p0--|
A|--7-7-7-7-7-7-7-7-7-7-7-7/12-12-12-12-12-12\2--2--2-2---------------|
D|--------------------------------------------------------------------|

G|-------5-7-9------5-7-9--------5-7-9------5-7-9--|
D|------------------------------2-----------2------|  x4
A|--5-8--------5-8----------3------------3---------|
D|-------------------------------------------------|

G|---------------------------------------|
D|---------------------------------------|
A|--5-5-5-5/12-12-12-12\3-3-3-3-3-3-3-3--|
D|---------------------------------------|

G|---------------------------------------|
D|---------------------------------------|
A|--5-5-5-5/12-12-12-15\3-3-3-3-3-3-3-3--|
D|---------------------------------------|

G|---------------------------------------|
D|---------------------------------------|
A|--5-5-5-5/12-12-12-12\3-3-3-3-3-3-3-3--|
D|---------------------------------------|

G|---------------------------------------|
D|---------------------------------------|
A|--5-5-5-5/12-12-12-15\3-3-3-3-3-3-3-3--|
D|---------------------------------------|

| /  slide up
| \  slide down
| h  hammer-on
| p  pull-off
| ~  vibrato
| +  harmonic
| x  Mute note
            
Hard to play? Try these video lessons and learn fast. | Correct




comments powered by Disqus
↑ Back to top | Tablatures and chords are parodies/interpretations of the original songs. You may use it for private study, scholarship, research or language learning purposes only