» » »

Dance Gavin Dance, Lemon Meringue Tie Bass tabs (ver.1)

Artists:  A B C D E F G H I J K L M N O P Q R S T U V W X Y Z # 

Lemon Meringue Tie Bass tabs (ver.1)

Dance Gavin Dance Tabs
 Rating:
4/5 (4 votes)
Lemon Meringue Tie lessons Tabs too difficult? Try these video lessons and learn fast
                Dance Gavin Dance

Dropped D

This is how i play it. The notes are right, but the slides and pull-off and
hammer-ons are what i like to do.


Intro
G:-7------------------------------------|
D:---5-0--------------------------------|
A:-------0-7--0/7\--0/7\-0-2h3p2p0------|
D:---------------------------------2-2--|

G:----------------------------------------|
D:-5-7-4----------------------------------|
A:-------5/7-0/7--0/7\--0-2h3p2p0---------|
D:--------------------------------2-2-2~--|

  "And now you go"
G:-----------------------------------------------------------------------|
D:-----------------------------------------------------------------------|
A:------------------------------2h3333333-2h3333333-2h3333333-2h3333333--|
D:-2-2222-2-2-----2-2222-2-2---------------------------------------------|

G:-------------------------------------------------------------------------------|
D:-------------------------------------------------------------------------------|
A:-----------------------------2-2-2-2h3p0-2-2-2-2h3p0-2-2-2-2h3p0-2-2-2-2p02p0--|
D:-2-2222-2-2-----2-2222-2-2-----------------------------------------------------|

G:---------------------------------------------------------------------|
D:---------------------------------------------------------------------|
A:-----------------------------33333--33333--3-3-3-3-3333333333333333--|
D:-2-2222-2-2-----2-2222-2-2-------------------------------------------|

G:-----------------------------|
D:-----------------------------|
A:-----------------------------|
D:-2-2222-2-2-----2-2222-2-0~--|


  "...?"
G:------------------------------------------|
D:------------------------------------------|
A:-7-7-7-7-7-7-7-7-10-10-10-10-10-10-10-10--|
D:------------------------------------------|

  "And I don't know why"
G:------------------------------------------------------------------|   x4
D:------------------------------------------------------------------|
A:-3-3-3-3-3-3-3-3-0-0-0-0-0-0-0-0----------------------------------|
D:---------------------------------2-2-2-2-2-2-2-2-5-5-5-5-5-5-5-5--|


  "Stage lights are burning up"
G:------------------------------------------|   x2
D:------------------------------------------|
A:-3~--------2~--------3~--------7~----10~--|
D:------------------------------------------|


  "Mace yourself, blame someone else"
G:-------------------------------------------|   x5
D:-------------------------------------------|
A:-33333--33333--3-3-3-3-333333333333333333--|
D:-------------------------------------------|


  "And I believed you’re not okay"
G:-------------------|   x4
D:-------------------|
A:-3~----/7-0~-------|
D:---------------2~--|


  "And I don't know why"
G:------------------------------------------------------------------|   x4
D:------------------------------------------------------------------|
A:-3-3-3-3-3-3-3-3-0-0-0-0-0-0-0-0----------------------------------|
D:---------------------------------2-2-2-2-2-2-2-2-5-5-5-5-5-5-5-5--|


  "Hey girl, you're the best"
G:---------------------------------------------------|
D:---------------------------------------------------|
A:-33333--33333--3-3-3-3-333333333333333333---33333--|
D:---------------------------------------------------|
            
Submit corrections

comments powered by Disqus
↑ Back to top | Dance Gavin Dance Bass for Lemon Meringue Tie. Lyrics for acoustic guitar and electric guitar. Tablatures and chords are parodies/interpretations of the original songs. You may use it for private study, scholarship, research or language learning purposes only