>
 >
Me And Zoloft Get Along Just Fine

Me And Zoloft Get Along Just Fine Guitar Tabs

Dance Gavin Dance - Me And Zoloft Get Along Just Fine chords, tabs, tablatures, lyrics

Guitar lessons | Add/correct | Request | Top 50 tabs Artists:  A B C D E F G H I J K L M N O P Q R S T U V W X Y Z 0-9

Me And Zoloft Get Along Just Fine Guitar Tabs – Dance Gavin Dance

CD, Sheet music, Poster

Do you like Me And Zoloft Get Along Just Fine? Share with your friends now
Bass TabsBass Tabs v2Bass Tabs v3Tabs
                       Me and Zolof Get Along Just Fine                         


                                                               Dance Gavin Dance
Left Lead Guitar
                                       PM PM  
      S  S  S  E.   E   S  S S  S  S S S  S   
E||------------------------------------------|
B||--------------------17-12-0-15-12-0-0--0--|
G||-----------12---16------------------------|
D||--14-14-14--------------------------------|
A||------------------------------------------|
D||------------------------------------------|
 
 
                                     |---3---|         
   S  S  S   E   S   S  S  S  S  E   S   S   S  S   S  
-----------------------------------------------17p-15-|
--15-12----------------------15-12--15h-17p-15--------|
--------12s-11---------12-14--------------------------|
----------------12s-14--------------------------------|
------------------------------------------------------|
------------------------------------------------------|
 
 
   S  S  S   E   S   S  S  E   S   S  S  E.   
--15-14--------------------------------------|
--------15s-17---------15------------15------|
----------------14s-16----16--14h-16----16---|
---------------------------------------------|
---------------------------------------------|
---------------------------------------------|
 
 
  S  S  S  S   S S S   E   S  S  S  S  E.   
-------------------------------------------|
-------12-----------------15-12------------|
--9-12--------------------------14-12------|
----------12s-14---9s-12--------------12---|
-------------------------------------------|
-------------------------------------------|
 
 
   S  S  S  E.   E   S  S S  S  S S  S S  
-----------------------------------------|
--------------------17-12-0-15-12-0-15-0-|
-----------12---16-----------------------|
--14-14-14-------------------------------|
-----------------------------------------|
-----------------------------------------|
 
 
                                     |---3---|         
   S  S  S   E   S   S  S  S  S  E   S   S   S  S   S  
-----------------------------------------------17p-15-|
--15-12----------------------15-12--15h-17p-15--------|
--------12s-11---------12-14--------------------------|
----------------12s-14--------------------------------|
------------------------------------------------------|
------------------------------------------------------|
 
 
   S  S  S   E   S   S  S  E   S   S  S  E.   
--15-14--------------------------------------|
--------15s-17---------15------------15------|
----------------14s-16----16--14h-16----16---|
---------------------------------------------|
---------------------------------------------|
---------------------------------------------|
 
 
  S  S  S  S   S S S   E   S  S  S  S  S  S  S  
-----------------------------------------------|
-------12-----------------15-12----------------|
--9-12--------------------------14-12-11-------|
----------12s-14---9s-12-----------------12-14-|
-----------------------------------------------|
-----------------------------------------------|
 
 
  E  S   S E  S   S S  S  S  S  S  S  S  S  
-------------------------------------------|
----------------------15-12----------------|
----------------------------14-12-11-------|
-----9s-12----9s-12------------------12----|
----------------------------------------14-|
-------------------------------------------|
 
 
   E   S   S E  S   S S  S  S  S  S  S  S  S  
---------------------------------------------|
------------------------15-12----------------|
------------------------------14-12-11-------|
-------9s-12----9s-12------------------12-14-|
---L\----------------------------------------|
---------------------------------------------|
 
 
  E   S   S E  S   S S  S  S  S  S  S  S  S     E   S   S E  S   S H         
--------------------------------------------|-------------------------------|
-----------------------15-12----------------|-------------------------------|
-----------------------------14-12-11-------|-------------------------------|
--L\--9s-12----9s-12------------------12----|-------9s-12----9s-12-L--------|
-----------------------------------------14-|---L\--------------------------|
--------------------------------------------|-------------------------------|
 
 
   Not sure about the fingering, but the notes are correct.                     
   S  S S S S T  T T  T T S
--10p-7--------------------
--------8------------------
----------7--------7h-9-7--
--------------7h-9---------
---------------------------
---------------------------
 
 
   S  S S S S T  T T  T T  T  T   T T  T   T T  T   T  T   T  T T  T   T  T   T 
--10p-7------------------------------------------------------------------10h-12-
--------8---------------7h-8-10h-12---10h-12---15p-12-------------10h-12--------
----------7--------7h-9-------------------------------12p-11--------------------
--------------7h-9-------------------------------------------12-----------------
 
 
   S  S S S S T  T T  T T S. T  T T  T T T  T  T T   T T S.  
--10p-7-----------------------------10-----10p-7------------|
--------8--------------------8p-7------8---------8h-10------|
----------7--------7h-9-7------------------------------7----|
--------------7h-9------------------------------------------|
------------------------------------------------------------|
------------------------------------------------------------|
 
 
   S  S S S S T  T T  T T  T  T   T T  T   T T  T   T  T   T  T T  T   T  T   T 
--10p-7------------------------------------------------------------------10h-12-
--------8---------------7h-8-10h-12---10h-12---15p-12-------------10h-12--------
----------7--------7h-9-------------------------------12p-11--------------------
--------------7h-9-------------------------------------------12-----------------
 
 
  T T T T T T T T E  T T T T T T T T E  T T T T T T T T  
--3-3-3-L-3-3-3-L----3-3-3-L-3-3-3-L----3-3-3-L-3-3-3-L-|
--3-3-3-L-3-3-3-L----3-3-3-L-3-3-3-L----3-3-3-L-3-3-3-L-|
--0-0-0-L-0-0-0-L----0-0-0-L-0-0-0-L----0-0-0-L-0-0-0-L-|
--0-0-0-L-0-0-0-L----0-0-0-L-0-0-0-L----0-0-0-L-0-0-0-L-|
--3-3-3-L-3-3-3-L----3-3-3-L-3-3-3-L----3-3-3-L-3-3-3-L-|
--------------------------------------------------------|
 
 
  T T T T T T T T E  T T T T T T T T E  S  E.   
--3-3-3-L-3-3-3-L----3-3-3-L-3-3-3-L----3s-5---|
--3-3-3-L-3-3-3-L----3-3-3-L-3-3-3-L----3s-5---|
--0-0-0---0-0-0-L----0-0-0---0-0-0-L----0--0---|
--2-2-2-L-2-2-2-L----2-2-2-L-2-2-2-L----0--0---|
--0-0-0-L-0-0-0-L----0-0-0-L-0-0-0-L-----------|
-----------------------------------------------|
 
 
  T T T T T T T T E  T T T T T T T T E  T T T T T T T T  
--3-3-3-L-3-3-3-L----3-3-3-L-3-3-3-L----3-3-3-L-3-3-3-L-|
--3-3-3-L-3-3-3-L----3-3-3-L-3-3-3-L----3-3-3-L-3-3-3-L-|
--0-0-0---0-0-0-L----0-0-0-L-0-0-0-L----0-0-0-L-0-0-0-L-|
--x-x-x-L-x-x-x-L----x-x-x-L-x-x-x-L----x-x-x-L-x-x-x-L-|
--2-2-2-L-2-2-2-L----2-2-2-L-2-2-2-L----2-2-2-L-2-2-2-L-|
--2-2-2---2-2-2------2-2-2---2-2-2------2-2-2---2-2-2---|
 
 
  T T T T T T T T E  T T T T T T T T E  S  S S S  
--3-3-3-L-3-3-3-L----3-3-3-L-3-3-3-L----3s-5-5-5-|
--3-3-3-L-3-3-3-L----3-3-3-L-3-3-3-L----3s-5-5-5-|
--0-0-0---0-0-0-L----0-0-0-L-0-0-0-L----0--0-0-0-|
--x-x-x-L-x-x-x-L----x-x-x-L-x-x-x-L----0--0-0-0-|
--2-2-2-L-2-2-2-L----2-2-2-L-2-2-2-L-------------|
--2-2-2---2-2-2------2-2-2---2-2-2---------------|
 
 
  T T T T T T T T E  T T T T T T T T E  T T T T T T T T  
--3-3-3-L-3-3-3-L----3-3-3-L-3-3-3-L----3-3-3-L-3-3-3-L-|
--3-3-3-L-3-3-3-L----3-3-3-L-3-3-3-L----3-3-3-L-3-3-3-L-|
--0-0-0-L-0-0-0-L----0-0-0-L-0-0-0-L----0-0-0-L-0-0-0-L-|
--0-0-0-L-0-0-0-L----0-0-0-L-0-0-0-L----0-0-0-L-0-0-0-L-|
--3-3-3-L-3-3-3-L----3-3-3-L-3-3-3-L----3-3-3-L-3-3-3-L-|
--------------------------------------------------------|
 
 
  T T T T T T T T E  T T T T T T T T E  T T T T T T T T  
--3-3-3-L-3-3-3-L----3-3-3-L-3-3-3-L----3-3-3-L-3-3-3-L-|
--3-3-3-L-3-3-3-L----3-3-3-L-3-3-3-L----3-3-3-L-3-3-3-L-|
--0-0-0---0-0-0-L----0-0-0---0-0-0-L----0-0-0---0-0-0-L-|
--2-2-2-L-2-2-2-L----2-2-2-L-2-2-2-L----2-2-2-L-2-2-2-L-|
--0-0-0-L-0-0-0-L----0-0-0-L-0-0-0-L----0-0-0-L-0-0-0-L-|
--------------------------------------------------------|
 
 
  T T T T T T T T E  T T T T T T T T E  T T T T T T T T  
--3-3-3-L-3-3-3-L----3-3-3-L-3-3-3-L----3-3-3-L-3-3-3-L-|
--3-3-3-L-3-3-3-L----3-3-3-L-3-3-3-L----3-3-3-L-3-3-3-L-|
--0-0-0---0-0-0-L----0-0-0-L-0-0-0-L----0-0-0-L-0-0-0-L-|
--x-x-x-L-x-x-x-L----x-x-x-L-x-x-x-L----x-x-x-L-x-x-x-L-|
--2-2-2-L-2-2-2-L----2-2-2-L-2-2-2-L----2-2-2-L-2-2-2-L-|
--2-2-2---2-2-2------2-2-2---2-2-2------2-2-2---2-2-2---|
 
 
  T T T T T T T T E  T T T T T T T T E  T T T T T T T T    W                 
--3-3-3-L-3-3-3-L----3-3-3-L-3-3-3-L----3-3-3-L-3-3-3-L-|--3----------------|
--3-3-3-L-3-3-3-L----3-3-3-L-3-3-3-L----3-3-3-L-3-3-3-L-|--3----------------|
--0-0-0---0-0-0-L----0-0-0-L-0-0-0-L----0-0-0-L-0-0-0-L-|--0----------------|
--x-x-x-L-x-x-x-L----x-x-x-L-x-x-x-L----x-x-x-L-x-x-x-L-|--0----------------|
--2-2-2-L-2-2-2-L----2-2-2-L-2-2-2-L----2-2-2-L-2-2-2-L-|--3----------------|
--2-2-2---2-2-2------2-2-2---2-2-2------2-2-2---2-2-2---|-------------------|
 
 
  E.  E.  E  Q    Q       T T T T T T T T T T T T T T T T  S.S. S   S  S E   
--3---L---L--L---------|----------------------------------------------------|
--L---3---L--L---------|--8-8-8-8-8-8-8-8-8-8-8-8-8-8-8-8-10-7--------------|
--L---L---L--L---------|--7-7-7-7-7-7-7-7-7-7-7-7-7-7-7-7--x-x--7s-11s-4-4--|
--L---L---L--L---------|--9-9-9-9-9-9-9-9-9-9-9-9-9-9-9-9--7-4--x---x--x-x--|
--L---L---L--L---------|--7-7-7-7-7-7-7-7-7-7-7-7-7-7-7-7-------5s--9s-2-2--|
-----------------------|----------------------------------------------------|
 
 
  T T T T T T T T T T T T T T T T  S.S. S   S  S E   
----------------------------------------------------|
--8-8-8-8-8-8-8-8-8-8-8-8-8-8-8-8-10-7--------------|
--7-7-7-7-7-7-7-7-7-7-7-7-7-7-7-7--x-x--7s-11s-4-4--|
--9-9-9-9-9-9-9-9-9-9-9-9-9-9-9-9--7-4--x---x--x-x--|
--7-7-7-7-7-7-7-7-7-7-7-7-7-7-7-7-------5s--9s-2-2--|
----------------------------------------------------|
 
 
  T T T T T T T T T T T T T T T T T   T  T  T  T  T  T  T  T  T  T  T  T  T  T  
--8-8-8-8-8-8-8-8-8-8-8-8-8-8-8-8-8s-10-10-10-10-10-10-10-10-10-10-10-10-10-10-1
 
 
   T   T  T  T  T  T  T  T  T  T  T  T  T  T  T  T  T  T  T  T  T  T  T  T  T  T
--10s-12-12-12-12-12-12-12-12-12-12-12-12-12-12-12------------------------------
---------------------------------------------------10-10-10-10-10-10-10-10-10-10
---------------------------------------------------10-10-10-10-10-10-10-10-10-10
---------------------------------------------------10-10-10-10-10-10-10-10-10-10
 
 
  Q.     S S    S  S  S S  S  S S E  S  S S  S  S S S  
-------------|----10p-0-7h-8p-7------7p-0-------------|
-------------|------------------8---------7h-8p-7-----|
-------------|--------------------9---------------7---|
-----------9-|--L-----------------------------------9-|
-------------|----------------------------------------|
-------------|----------------------------------------|
 
 
  S  S  S S  S  S S E  S  S S  S  S S S  
----10p-0-7h-8p-7------7p-0-------------|
------------------8---------7h-8p-7-----|
--------------------9---------------7---|
--L-----------------------------------9-|
----------------------------------------|
----------------------------------------|
 
 
  S  S  S S  S  S S E  S  S S  S  S S S  
----10p-0-7h-8p-7------7p-0-------------|
------------------8---------7h-8p-7-----|
--------------------9---------------7---|
--L-----------------------------------9-|
----------------------------------------|
----------------------------------------|
 
 
  S  S  S S  S  S S  E   S S  E   E   S  
----10p-0-7h-8p-7---12p--0---10---------|
------------------8--------------12-----|
-------------------------------------12-|
--L------------------------9----------x-|
-------------------------------------10-|
----------------------------------------|
 
 
  S  S  S T T  S  S S  E   S S  E   E   S  
----------------------12p--0---10---------|
--------------12-12----------------12-----|
--L-12-12-x-x--x--x--------------------12-|
-----x--x-x-x-10-10----------9----------x-|
--L-10-10-x-x--------------------------10-|
------------------------------------------|
 
 
  S  S  S T T  S   S   S  E   S S  E   E   S  
-------------------------12p--0---10---------|
--------------12h-13p-12--------------12-----|
----12-12-x-x-----------------------------12-|
-----x--x-x-x-------------------9----------x-|
----10-10-x-x-----------------------------10-|
---------------------------------------------|
 
 
  S  S  S T T  S  S S  E   S S  E   E   S     S   S   S  S   S   S  S S   
----------------------12p--0---10------14-|---Lh-15p-14------------------|
--------------12-12----------------12-----|-------------15h-17p-15-------|
--L-12-12-x-x--x--x-----------------------|------------------------16-L\-|
-----x--x-x-x-10-10----------9------------|------------------------------|
--L-10-10-x-x-----------------------------|------------------------------|
------------------------------------------|------------------------------|
 
 
  T T T T T T T T T T T T S S S S S E  S E   
--------------------------------------------|
--------------------------------------------|
--8-8-8-8-8-8-8-8-8-8-8-8-8-8---8---8--8-8--|
--x-x-x-x-x-x-x-x-x-x-x-x-x-x---x---x--x-x--|
--6-6-6-6-6-6-6-6-6-6-6-6-6-6---9---9--9-9--|
--------------------------------9---9--9-9--|
 
 
  T T T T T T T T T T T T S S S  S  S  E   S E   
--7-7-7-7-7-7-7-7-7-7-7-7-7-7----0-----0---0-0--|
--x-x-x-x-x-x-x-x-x-x-x-x-x-x---12----12--------|
--9-9-9-9-9-9-9-9-9-9-9-9-9-9---11b---11b-------|
--x-x-x-x-x-x-x-x-x-x-x-x-x-x-------------------|
--7-7-7-7-7-7-7-7-7-7-7-7-7-7-------------------|
------------------------------------------------|
 
 
                                           This harmonic is correct.
                                           NH                       
  T T T T T T T T T T T T S S S S S E  S   E                        
--4-4-4-4-4-4-4-4-4-4-4-4-4-4---8---8--8---------------------------|
--x-x-x-x-x-x-x-x-x-x-x-x-x-x--------------------------------------|
--2-2-2-2-2-2-2-2-2-2-2-2-2-2--------------------------------------|
-----------------------------------------<>5-----------------------|
 
 
  T T T T T T T T E  T T T T T T T T E  T T T T T T T T  
--3-3-3-L-3-3-3-L----3-3-3-L-3-3-3-L----3-3-3-L-3-3-3-L-|
--3-3-3-L-3-3-3-L----3-3-3-L-3-3-3-L----3-3-3-L-3-3-3-L-|
--0-0-0-L-0-0-0-L----0-0-0-L-0-0-0-L----0-0-0-L-0-0-0-L-|
--0-0-0-L-0-0-0-L----0-0-0-L-0-0-0-L----0-0-0-L-0-0-0-L-|
--3-3-3-L-3-3-3-L----3-3-3-L-3-3-3-L----3-3-3-L-3-3-3-L-|
--------------------------------------------------------|
 
 
  T T T T T T T T E  T T T T T T T T E  S  E.   
--3-3-3-L-3-3-3-L----3-3-3-L-3-3-3-L----3s-5---|
--3-3-3-L-3-3-3-L----3-3-3-L-3-3-3-L----3s-5---|
--0-0-0---0-0-0-L----0-0-0---0-0-0-L----0--0---|
--2-2-2-L-2-2-2-L----2-2-2-L-2-2-2-L----0--0---|
--0-0-0-L-0-0-0-L----0-0-0-L-0-0-0-L-----------|
-----------------------------------------------|
 
 
  T T T T T T T T E  T T T T T T T T E  T T T T T T T T  
--3-3-3-L-3-3-3-L----3-3-3-L-3-3-3-L----3-3-3-L-3-3-3-L-|
--3-3-3-L-3-3-3-L----3-3-3-L-3-3-3-L----3-3-3-L-3-3-3-L-|
--0-0-0---0-0-0-L----0-0-0-L-0-0-0-L----0-0-0-L-0-0-0-L-|
--x-x-x-L-x-x-x-L----x-x-x-L-x-x-x-L----x-x-x-L-x-x-x-L-|
--2-2-2-L-2-2-2-L----2-2-2-L-2-2-2-L----2-2-2-L-2-2-2-L-|
--2-2-2---2-2-2------2-2-2---2-2-2------2-2-2---2-2-2---|
 
 
  T T T T T T T T E  T T T T T T T T E  S  S S S  
--3-3-3-L-3-3-3-L----3-3-3-L-3-3-3-L----3s-5-5-5-|
--3-3-3-L-3-3-3-L----3-3-3-L-3-3-3-L----3s-5-5-5-|
--0-0-0---0-0-0-L----0-0-0-L-0-0-0-L----0--0-0-0-|
--x-x-x-L-x-x-x-L----x-x-x-L-x-x-x-L----0--0-0-0-|
--2-2-2-L-2-2-2-L----2-2-2-L-2-2-2-L-------------|
--2-2-2---2-2-2------2-2-2---2-2-2---------------|
 
 
  T T T T T T T T E  T T T T T T T T E  T T T T T T T T  
--3-3-3-L-3-3-3-L----3-3-3-L-3-3-3-L----3-3-3-L-3-3-3-L-|
--3-3-3-L-3-3-3-L----3-3-3-L-3-3-3-L----3-3-3-L-3-3-3-L-|
--0-0-0-L-0-0-0-L----0-0-0-L-0-0-0-L----0-0-0-L-0-0-0-L-|
--0-0-0-L-0-0-0-L----0-0-0-L-0-0-0-L----0-0-0-L-0-0-0-L-|
--3-3-3-L-3-3-3-L----3-3-3-L-3-3-3-L----3-3-3-L-3-3-3-L-|
--------------------------------------------------------|
 
 
  T T T T T T T T E  T T T T T T T T E  T T T T T T T T  
--3-3-3-L-3-3-3-L----3-3-3-L-3-3-3-L----3-3-3-L-3-3-3-L-|
--3-3-3-L-3-3-3-L----3-3-3-L-3-3-3-L----3-3-3-L-3-3-3-L-|
--0-0-0---0-0-0-L----0-0-0---0-0-0-L----0-0-0---0-0-0-L-|
--2-2-2-L-2-2-2-L----2-2-2-L-2-2-2-L----2-2-2-L-2-2-2-L-|
--0-0-0-L-0-0-0-L----0-0-0-L-0-0-0-L----0-0-0-L-0-0-0-L-|
--------------------------------------------------------|
 
 
  T T T T T T T T E  T T T T T T T T E  T T T T T T T T  
--3-3-3-L-3-3-3-L----3-3-3-L-3-3-3-L----3-3-3-L-3-3-3-L-|
--3-3-3-L-3-3-3-L----3-3-3-L-3-3-3-L----3-3-3-L-3-3-3-L-|
--0-0-0---0-0-0-L----0-0-0-L-0-0-0-L----0-0-0-L-0-0-0-L-|
--x-x-x-L-x-x-x-L----x-x-x-L-x-x-x-L----x-x-x-L-x-x-x-L-|
--2-2-2-L-2-2-2-L----2-2-2-L-2-2-2-L----2-2-2-L-2-2-2-L-|
--2-2-2---2-2-2------2-2-2---2-2-2------2-2-2---2-2-2---|
 
 
  T T T T T T T T E  T T T T T T T T E  T T T T T T T T  
--3-3-3-L-3-3-3-L----3-3-3-L-3-3-3-L----3-3-3-L-3-3-3-L-|
--3-3-3-L-3-3-3-L----3-3-3-L-3-3-3-L----3-3-3-L-3-3-3-L-|
--0-0-0---0-0-0-L----0-0-0-L-0-0-0-L----0-0-0-L-0-0-0-L-|
--x-x-x-L-x-x-x-L----x-x-x-L-x-x-x-L----x-x-x-L-x-x-x-L-|
--2-2-2-L-2-2-2-L----2-2-2-L-2-2-2-L----2-2-2-L-2-2-2-L-|
--2-2-2---2-2-2------2-2-2---2-2-2------2-2-2---2-2-2---|
 
 
   Do that a bunch of times randomly.                                           
   Q.      Q.                       H.                            
--14----------|----------------|---------------|
-----12b------|---L------------|---------------|
--------------|----------------|---------------|
--------------|----------------|---------------|
--------------|----------------|---------------|
--------------|----------------|---------------|
 
 
                                       E.   E   S  Q    E   
----|----|----|----|----|----|----|--/14-------------------|
----|----|----|----|----|----|----|--------12--------------|
----|----|----|----|----|----|----|------------12----------|
----|----|----|----|----|----|----|---------------12-------|
----|----|----|----|----|----|----|------------------------|
----|----|----|----|----|----|----|------------------------|
 
 
    E.   E   S  E   E   E       E.   E   S  Q    E   
---------------------------|--/14-------------------|
--------10-----12--10------|--------12--------------|
--/12----L--12---------12--|------------12----------|
---------------------------|---------------12-------|
---------------------------|------------------------|
---------------------------|------------------------|
 
 
    E.   E   S  E   E   E      S  S  S  S  S  S  S  S  S  S  S  S  
---------------------------|--19-19-19-22-22-22-------------------|
--------10-----12--10------|--------------------20-20-20-19-19-19-|
--/12----L--12---------12--|--------------------------------------|
---------------------------|--------------------------------------|
---------------------------|--------------------------------------|
---------------------------|--------------------------------------|
 
 
   S  S  S  S  S  S  S  S  S  S  S  S     S  S  S  S  S  S  S  S  S  S  S  S  
--------------------------------------|--19-19-19-22-22-22-------------------|
--------------------------------------|--------------------20-20-20-19-19-19-|
--16-16-16-16-16-16-16-16-16-16-16-16-|--------------------------------------|
--------------------------------------|--------------------------------------|
--------------------------------------|--------------------------------------|
--------------------------------------|--------------------------------------|
 
 
   S  S  S  S  S  S  Q.          E.   E   S  Q    E   
----------------------------|--/14-------------------|
----------------------------|--------12--------------|
--16-16-16-16-16-16-16------|------------12----------|
----------------------------|---------------12-------|
----------------------------|------------------------|
----------------------------|------------------------|
 
 
    E.   E   S  E   E   E       E.   E.   E.  E.      E.   Q    E.   E   
---------------------------|--/14-----------------|---------------------|
--------10-----12--10------|--------12------------|-------10----L-------|
--/12----L--12---------12--|-------------12-------|--12----L----L---12--|
---------------------------|----------------------|---------------------|
---------------------------|----------------------|---------------------|
---------------------------|----------------------|---------------------|
 
 
                                                 NH                             
   S   S  S  E   S  S   S   S  S S S    Q.       Q.         E.   E.   E.   E.   
------------10-----------------------|------------------|----------------------|
--12p-10-----------------------------|---------<>7------|--15---12-------------|
---------12-----12-11h-12p-11s-7---7-|------------------|------------14---12---|
---------------------------------9---|--7---------------|----------------------|
-------------------------------------|------------------|----------------------|
-------------------------------------|------------------|----------------------|
 
 
   H.               H.             
-----------------|---------------||
-----------------|---------------||
--14b------------|--L------------||
-----------------|---------------||
-----------------|---------------||
-----------------|---------------||




                       Me and Zolof Get Along Just Fine                         


                                                               Dance Gavin Dance
Right Rythm Guitar
     S S S S S S E  S S S E.  E      S  S  S  S S S E   S  S  S  S S S E   
E||------------------------------|----------------------------------------|
B||-----------------7-7-7-7------|--12-12-12-12--------12-12-12-12--------|
G||-----------------x-x-x-x------|---x--x--x--x---x-----x--x--x--x---x----|
D||--2-2-2-2---x-0--5-5-5-5---0--|--10-10-10-10---x-0--10-10-10-10---x-0--|
A||--2-2-2-2---x-0------------0--|------------------0------------------0--|
D||--2-2-2-2-----0------------0--|------------------0------------------0--|
 
 
  S S S S S S E   S  S  S  E.  E      S  S  S  S S S E   S  S  S  S S S E   
-----------------10-10-10-10------|----------------------------------------|
------------------x--x--x--x------|--12-12-12-12--------12-12-12-12--------|
------------------9--9--9--9------|---x--x--x--x---x-----x--x--x--x---x----|
--2-2-2-2---x-0----------------0--|--10-10-10-10---x-0--10-10-10-10---x-0--|
--2-2-2-2---x-0----------------0--|------------------0------------------0--|
--2-2-2-2-----0----------------0--|------------------0------------------0--|
 
 
  S S S S S S E  S S S E.  E      S  S  S  S S S E   S  S  S  S S S E   
------------------------------|----------------------------------------|
-----------------7-7-7-7------|--12-12-12-12--------12-12-12-12--------|
-----------------x-x-x-x------|---x--x--x--x---x-----x--x--x--x---x----|
--2-2-2-2---x-0--5-5-5-5---0--|--10-10-10-10---x-0--10-10-10-10---x-0--|
--2-2-2-2---x-0------------0--|------------------0------------------0--|
--2-2-2-2-----0------------0--|------------------0------------------0--|
 
 
  S S S S S S E   S  S  S  E.  E      S  S  S  S S S  E  S  S S S  S S  S S  
-----------------10-10-10-10------|------------------------------------10-7-|
------------------x--x--x--x------|--12-12-12-12-----12---------8-10-8------|
------------------9--9--9--9---0--|---x--x--x--x---x--x----/7-9-------------|
--2-2-2-2---x-0----------------0--|--10-10-10-10---x-10---------------------|
--2-2-2-2---x-0-------------------|-----------------------------------------|
--2-2-2-2-------------------------|-----------------------------------------|
 
 
  E  S S E  S E   S S S  S S  S  S    E   S S E  S E   S S S  S S  S S  
-----------------------------10----|------------------------------10-7-|
----------------------8-10-8----10-|--L\-------------------8-10-8------|
-----------------/7-9--------------|------------------/7-9-------------|
-----------------------------------|-----------------------------------|
-----2-2----2-2--------------------|------0-0----0-0-------------------|
-----2-2----2-2--------------------|------0-0----0-0-------------------|
 
 
  E   S S E  S E   S S S  S S  S  S    E   S S E  S E.  E  E  E   
--L\--------------------------10----|----------------------------|
-----------------------8-10-8----10-|--L\------------------------|
------------------/7-9--------------|----------------------------|
------------------------------------|----------------------------|
------2-2----2-2--------------------|------0-0----0-0---0--0--0--|
------2-2----2-2--------------------|------0-0----0-0---0--0--0--|
 
 
  T T T T T T T T S S T T T T T T T T S S T T T T T T T T  
--3-3-3-L-3-3-3-L-----3-3-3-L-3-3-3-L-----3-3-3-L-3-3-3-L-|
--3-3-3-L-3-3-3-L-----3-3-3-L-3-3-3-L-----3-3-3-L-3-3-3-L-|
--0-0-0-L-0-0-0-L-----0-0-0-L-0-0-0-L-----0-0-0-L-0-0-0-L-|
--0-0-0-L-0-0-0-L-----0-0-0-L-0-0-0-L-----0-0-0-L-0-0-0-L-|
--3-3-3-L-3-3-3-L---0-3-3-3-L-3-3-3-L---0-3-3-3-L-3-3-3-L-|
--------------------0-------------------0-----------------|
 
 
  T T T T T T T T S S T T T T T T T T S S T T T T T T T T  
--3-3-3-L-3-3-3-L-----3-3-3-L-3-3-3-L-----3-3-3-L-3-3-3-L-|
--3-3-3-L-3-3-3-L-----3-3-3-L-3-3-3-L-----3-3-3-L-3-3-3-L-|
--0-0-0---0-0-0-L-----0-0-0---0-0-0-L-----0-0-0---0-0-0-L-|
--2-2-2-L-2-2-2-L-----2-2-2-L-2-2-2-L-----2-2-2-L-2-2-2-L-|
--0-0-0-L-0-0-0-L---0-0-0-0-L-0-0-0-L---0-0-0-0-L-0-0-0-L-|
--------------------0-------------------0-----------------|
 
 
  T T T T T T T T S S T T T T T T T T S S T T T T T T T T  
--3-3-3-L-3-3-3-L-----3-3-3-L-3-3-3-L-----3-3-3-L-3-3-3-L-|
--3-3-3-L-3-3-3-L-----3-3-3-L-3-3-3-L-----3-3-3-L-3-3-3-L-|
--0-0-0---0-0-0-L-----0-0-0-L-0-0-0-L-----0-0-0-L-0-0-0-L-|
--x-x-x-L-x-x-x-L-----x-x-x-L-x-x-x-L-----x-x-x-L-x-x-x-L-|
--2-2-2-L-2-2-2-L---0-2-2-2-L-2-2-2-L---0-2-2-2-L-2-2-2-L-|
--2-2-2---2-2-2-----0-2-2-2---2-2-2-----0-2-2-2---2-2-2---|
 
 
  T T T T T T T T S S T T T T T T T T S S T T T T T T T T  
--3-3-3-L-3-3-3-L-----3-3-3-L-3-3-3-L-----3-3-3-L-3-3-3-L-|
--3-3-3-L-3-3-3-L-----3-3-3-L-3-3-3-L-----3-3-3-L-3-3-3-L-|
--0-0-0---0-0-0-L-----0-0-0-L-0-0-0-L-----0-0-0-L-0-0-0-L-|
--x-x-x-L-x-x-x-L-----x-x-x-L-x-x-x-L-----x-x-x-L-x-x-x-L-|
--2-2-2-L-2-2-2-L---0-2-2-2-L-2-2-2-L---0-2-2-2-L-2-2-2-L-|
--2-2-2---2-2-2-----0-2-2-2---2-2-2-----0-2-2-2---2-2-2---|
 
 
  T T T T T T T T E  T T T T T T T T E  T T T T T T T T  
--3-3-3-L-3-3-3-L----3-3-3-L-3-3-3-L----3-3-3-L-3-3-3-L-|
--3-3-3-L-3-3-3-L----3-3-3-L-3-3-3-L----3-3-3-L-3-3-3-L-|
--0-0-0-L-0-0-0-L----0-0-0-L-0-0-0-L----0-0-0-L-0-0-0-L-|
--0-0-0-L-0-0-0-L----0-0-0-L-0-0-0-L----0-0-0-L-0-0-0-L-|
--3-3-3-L-3-3-3-L----3-3-3-L-3-3-3-L----3-3-3-L-3-3-3-L-|
--------------------------------------------------------|
 
 
  T T T T T T T T E  T T T T T T T T E  S  S  S  S  
--3-3-3-L-3-3-3-L----3-3-3-L-3-3-3-L---------------|
--3-3-3-L-3-3-3-L----3-3-3-L-3-3-3-L---------------|
--0-0-0---0-0-0-L----0-0-0---0-0-0-L---------------|
--2-2-2-L-2-2-2-L----2-2-2-L-2-2-2-L---------------|
--0-0-0-L-0-0-0-L----0-0-0-L-0-0-0-L---------------|
----------------------------------------7h-9p-7p-5-|
 
 
  T T T T T T T T E  T T T T T T T T E  T T T T T T T T  
--3-3-3-L-3-3-3-L----3-3-3-L-3-3-3-L----3-3-3-L-3-3-3-L-|
--3-3-3-L-3-3-3-L----3-3-3-L-3-3-3-L----3-3-3-L-3-3-3-L-|
--0-0-0---0-0-0-L----0-0-0-L-0-0-0-L----0-0-0-L-0-0-0-L-|
--x-x-x-L-x-x-x-L----x-x-x-L-x-x-x-L----x-x-x-L-x-x-x-L-|
--2-2-2-L-2-2-2-L----2-2-2-L-2-2-2-L----2-2-2-L-2-2-2-L-|
--2-2-2---2-2-2------2-2-2---2-2-2------2-2-2---2-2-2---|
 
 
  T T T T T T T T E  T T T T T T T T E  T T T T T T T T  
--3-3-3-L-3-3-3-L----3-3-3-L-3-3-3-L----3-3-3-L-3-3-3-L-|
--3-3-3-L-3-3-3-L----3-3-3-L-3-3-3-L----3-3-3-L-3-3-3-L-|
--0-0-0---0-0-0-L----0-0-0-L-0-0-0-L----0-0-0-L-0-0-0-L-|
--x-x-x-L-x-x-x-L----x-x-x-L-x-x-x-L----x-x-x-L-x-x-x-L-|
--2-2-2-L-2-2-2-L----2-2-2-L-2-2-2-L----2-2-2-L-2-2-2-L-|
--2-2-2---2-2-2------2-2-2---2-2-2------2-2-2---2-2-2---|
 
 
  T T T T T T T T E  T T T T T T T T E  T T T T T T T T  
--3-3-3-L-3-3-3-L----3-3-3-L-3-3-3-L----3-3-3-L-3-3-3-L-|
--3-3-3-L-3-3-3-L----3-3-3-L-3-3-3-L----3-3-3-L-3-3-3-L-|
--0-0-0-L-0-0-0-L----0-0-0-L-0-0-0-L----0-0-0-L-0-0-0-L-|
--0-0-0-L-0-0-0-L----0-0-0-L-0-0-0-L----0-0-0-L-0-0-0-L-|
--3-3-3-L-3-3-3-L----3-3-3-L-3-3-3-L----3-3-3-L-3-3-3-L-|
--------------------------------------------------------|
 
 
  T T T T T T T T E  T T T T T T T T E  T T T T T T T T  
--3-3-3-L-3-3-3-L----3-3-3-L-3-3-3-L----3-3-3-L-3-3-3-L-|
--3-3-3-L-3-3-3-L----3-3-3-L-3-3-3-L----3-3-3-L-3-3-3-L-|
--0-0-0---0-0-0-L----0-0-0---0-0-0-L----0-0-0---0-0-0-L-|
--2-2-2-L-2-2-2-L----2-2-2-L-2-2-2-L----2-2-2-L-2-2-2-L-|
--0-0-0-L-0-0-0-L----0-0-0-L-0-0-0-L----0-0-0-L-0-0-0-L-|
--------------------------------------------------------|
 
 
  T T T T T T T T E  T T T T T T T T E  T T T T T T T T  
--3-3-3-L-3-3-3-L----3-3-3-L-3-3-3-L----3-3-3-L-3-3-3-L-|
--3-3-3-L-3-3-3-L----3-3-3-L-3-3-3-L----3-3-3-L-3-3-3-L-|
--0-0-0---0-0-0-L----0-0-0-L-0-0-0-L----0-0-0-L-0-0-0-L-|
--x-x-x-L-x-x-x-L----x-x-x-L-x-x-x-L----x-x-x-L-x-x-x-L-|
--2-2-2-L-2-2-2-L----2-2-2-L-2-2-2-L----2-2-2-L-2-2-2-L-|
--2-2-2---2-2-2------2-2-2---2-2-2------2-2-2---2-2-2---|
 
 
  T T T T T T T T E  T T T T T T T T E  T T T T T T T T    W                 
--3-3-3-L-3-3-3-L----3-3-3-L-3-3-3-L----3-3-3-L-3-3-3-L-|--3----------------|
--3-3-3-L-3-3-3-L----3-3-3-L-3-3-3-L----3-3-3-L-3-3-3-L-|--3----------------|
--0-0-0---0-0-0-L----0-0-0-L-0-0-0-L----0-0-0-L-0-0-0-L-|--0----------------|
--x-x-x-L-x-x-x-L----x-x-x-L-x-x-x-L----x-x-x-L-x-x-x-L-|--0----------------|
--2-2-2-L-2-2-2-L----2-2-2-L-2-2-2-L----2-2-2-L-2-2-2-L-|--3----------------|
--2-2-2---2-2-2------2-2-2---2-2-2------2-2-2---2-2-2---|-------------------|
 
 
  E.  E.  E  Q    Q     
-------------L---------|
--3-------L--L---------|
------0---L--L---------|
--L---L---L--L---------|
--L---L---L--L---------|
-----------------------|
 
 
   T  T  T  T  T  T  T  T  T  T  T  T  T  T  T  T  S. S. S  S  S  E   
--12-12-12-12-12-12-12-12-12-12-12-12-12-12-12-12-14-11-12-12-12-12--|
--14-14-14-14-14-14-14-14-14-14-14-14-14-14-14-14-16-12-14-14-14-14--|
 
 
   T  T  T  T  T  T  T  T  T  T  T  T  T  T  T  T  S. S. S  S  S  S S  
--12-12-12-12-12-12-12-12-12-12-12-12-12-12-12-12-14-11-12-12-12-12---|
--14-14-14-14-14-14-14-14-14-14-14-14-14-14-14-14-16-12-14-14-14-14---|
 
 
   S  S  S  S  S  S  S  S  S  S  S  S  S  S  S  S  
-----------15-15-15-------------------------------|
--15-15-15----------------------------------------|
--------------------11-11-11-12-12-12-------------|
--------------------------------------14-14-14-14-|
--------------------------------------------------|
--------------------------------------------------|
 
 
   S  S  S  S  S  S  S  S  S  S  S  S  S   S   S S    S  S  S T T S  S  S S  
---------------------------------------------------|------------------------|
--15-15-15-13-13-13--------------------------------|------------------------|
--------------------16-16-16-17-17-17-16h-17p-16---|------------------------|
-------------------------------------------------0-|--Lh-2h-5-x-x-5h-7s-9-9-|
---------------------------------------------------|------------------------|
---------------------------------------------------|------------------------|
 
 
  S   S S E   S  S S S  S  S T T S  S  S S  
-------------------------------------------|
-------------------------------------------|
-------------------------------------------|
--Lh-10---9p--7s-5-0-Lh-2h-5-x-x-5h-7s-9-9-|
-------------------------------------------|
-------------------------------------------|
 
 
  S   S S E   S  S S S  S  S T T S  S  S S  
-------------------------------------------|
-------------------------------------------|
-------------------------------------------|
--Lh-10---9p--7s-5-0-Lh-2h-5-x-x-5h-7s-9-9-|
-------------------------------------------|
-------------------------------------------|
 
 
  S   S S E   S  S S S  S  S T T S  S  S S  
-------------------------------------------|
-------------------------------------------|
-------------------------------------------|
--Lh-10---9p--7s-5-0-Lh-2h-5-x-x-5h-7s-9-9-|
-------------------------------------------|
-------------------------------------------|
 
 
  S   S S E   S  S S S  S  S T T S  S  S S  
-------------------------------------------|
-------------------------------------------|
-------------------------------------------|
--Lh-10---9p--7s-5-0-Lh-2h-5-x-x-5h-7s-9-9-|
-------------------------------------------|
-------------------------------------------|
 
 
  S   S S E   S  S S S  S  S T T S  S  S S  
-------------------------------------------|
-------------------------------------------|
-------------------------------------------|
--Lh-10---9p--7s-5-0-Lh-2h-5-x-x-5h-7s-9-9-|
-------------------------------------------|
-------------------------------------------|
 
 
  S   S S E   S  S S S  S  S T T S  S  S S  
-------------------------------------------|
-------------------------------------------|
-------------------------------------------|
--Lh-10---9p--7s-5-0-Lh-2h-5-x-x-5h-7s-9-9-|
-------------------------------------------|
-------------------------------------------|
 
 
  S   S S E   S  S S S  S  S T T S  S  S S    S   S S  E   S E   
-------------------------------------------|--------------------|
-------------------------------------------|--------------------|
-------------------------------------------|--------------------|
--Lh-10---9p--7s-5-0-Lh-2h-5-x-x-5h-7s-9-9-|--Lh-10---12--14----|
-------------------------------------------|--------------------|
-------------------------------------------|--------------------|
 
 
  T T T T T T T T T T T T S S S  S  S  Q     S  
-----------------------------------------------|
-----------------------------------------------|
--8-8-8-8-8-8-8-8-8-8-8-8-8-8---11p-8-11b----0-|
-----------------------------------------------|
-----------------------------------------------|
-----------------------------------------------|
 
 
  T T T T T T T T T T T T S S S  S  S  Q     S  
-----------------------------------------------|
-----------------------------------------------|
--9-9-9-9-9-9-9-9-9-9-9-9-9-9---11p-9-11b----0-|
-----------------------------------------------|
-----------------------------------------------|
-----------------------------------------------|
 
 
  T T T T T T T T T T T T S S S S S E.   T X X  S  
--------------------------------------------------|
--------------------------------------------------|
--4-4-4-4-4-4-4-4-4-4-4-4-4-4---2---2b---L-L-Lh-0-|
--------------------------------------------------|
--------------------------------------------------|
--------------------------------------------------|
 
 
  T T T T T T T T E  T T T T T T T T E  T T T T T T T T  
--3-3-3-L-3-3-3-L----3-3-3-L-3-3-3-L----3-3-3-L-3-3-3-L-|
--3-3-3-L-3-3-3-L----3-3-3-L-3-3-3-L----3-3-3-L-3-3-3-L-|
--0-0-0-L-0-0-0-L----0-0-0-L-0-0-0-L----0-0-0-L-0-0-0-L-|
--0-0-0-L-0-0-0-L----0-0-0-L-0-0-0-L----0-0-0-L-0-0-0-L-|
--3-3-3-L-3-3-3-L----3-3-3-L-3-3-3-L----3-3-3-L-3-3-3-L-|
--------------------------------------------------------|
 
 
  T T T T T T T T E  T T T T T T T T E  T T T T T T T T  
--3-3-3-L-3-3-3-L----3-3-3-L-3-3-3-L----3-3-3-L-3-3-3-L-|
--3-3-3-L-3-3-3-L----3-3-3-L-3-3-3-L----3-3-3-L-3-3-3-L-|
--0-0-0---0-0-0-L----0-0-0---0-0-0-L----0-0-0---0-0-0-L-|
--2-2-2-L-2-2-2-L----2-2-2-L-2-2-2-L----2-2-2-L-2-2-2-L-|
--0-0-0-L-0-0-0-L----0-0-0-L-0-0-0-L----0-0-0-L-0-0-0-L-|
--------------------------------------------------------|
 
 
  T T T T T T T T E  T T T T T T T T E  T T T T T T T T  
--3-3-3-L-3-3-3-L----3-3-3-L-3-3-3-L----3-3-3-L-3-3-3-L-|
--3-3-3-L-3-3-3-L----3-3-3-L-3-3-3-L----3-3-3-L-3-3-3-L-|
--0-0-0---0-0-0-L----0-0-0-L-0-0-0-L----0-0-0-L-0-0-0-L-|
--x-x-x-L-x-x-x-L----x-x-x-L-x-x-x-L----x-x-x-L-x-x-x-L-|
--2-2-2-L-2-2-2-L----2-2-2-L-2-2-2-L----2-2-2-L-2-2-2-L-|
--2-2-2---2-2-2------2-2-2---2-2-2------2-2-2---2-2-2---|
 
 
  T T T T T T T T E  T T T T T T T T E  T T T T T T T T  
--3-3-3-L-3-3-3-L----3-3-3-L-3-3-3-L----3-3-3-L-3-3-3-L-|
--3-3-3-L-3-3-3-L----3-3-3-L-3-3-3-L----3-3-3-L-3-3-3-L-|
--0-0-0---0-0-0-L----0-0-0-L-0-0-0-L----0-0-0-L-0-0-0-L-|
--x-x-x-L-x-x-x-L----x-x-x-L-x-x-x-L----x-x-x-L-x-x-x-L-|
--2-2-2-L-2-2-2-L----2-2-2-L-2-2-2-L----2-2-2-L-2-2-2-L-|
--2-2-2---2-2-2------2-2-2---2-2-2------2-2-2---2-2-2---|
 
 
  T T T T T T T T E  T T T T T T T T E  T T T T T T T T  
--3-3-3-L-3-3-3-L----3-3-3-L-3-3-3-L----3-3-3-L-3-3-3-L-|
--3-3-3-L-3-3-3-L----3-3-3-L-3-3-3-L----3-3-3-L-3-3-3-L-|
--0-0-0-L-0-0-0-L----0-0-0-L-0-0-0-L----0-0-0-L-0-0-0-L-|
--0-0-0-L-0-0-0-L----0-0-0-L-0-0-0-L----0-0-0-L-0-0-0-L-|
--3-3-3-L-3-3-3-L----3-3-3-L-3-3-3-L----3-3-3-L-3-3-3-L-|
--------------------------------------------------------|
 
 
  T T T T T T T T E  T T T T T T T T E  T T T T T T T T  
--3-3-3-L-3-3-3-L----3-3-3-L-3-3-3-L----3-3-3-L-3-3-3-L-|
--3-3-3-L-3-3-3-L----3-3-3-L-3-3-3-L----3-3-3-L-3-3-3-L-|
--0-0-0---0-0-0-L----0-0-0---0-0-0-L----0-0-0---0-0-0-L-|
--2-2-2-L-2-2-2-L----2-2-2-L-2-2-2-L----2-2-2-L-2-2-2-L-|
--0-0-0-L-0-0-0-L----0-0-0-L-0-0-0-L----0-0-0-L-0-0-0-L-|
--------------------------------------------------------|
 
 
  T T T T T T T T E  T T T T T T T T E  T T T T T T T T  
--3-3-3-L-3-3-3-L----3-3-3-L-3-3-3-L----3-3-3-L-3-3-3-L-|
--3-3-3-L-3-3-3-L----3-3-3-L-3-3-3-L----3-3-3-L-3-3-3-L-|
--0-0-0---0-0-0-L----0-0-0-L-0-0-0-L----0-0-0-L-0-0-0-L-|
--x-x-x-L-x-x-x-L----x-x-x-L-x-x-x-L----x-x-x-L-x-x-x-L-|
--2-2-2-L-2-2-2-L----2-2-2-L-2-2-2-L----2-2-2-L-2-2-2-L-|
--2-2-2---2-2-2------2-2-2---2-2-2------2-2-2---2-2-2---|
 
 
  T T T T T T T T E  T T T T T T T T E  T T T T T T T T    H.            
--3-3-3-L-3-3-3-L----3-3-3-L-3-3-3-L----3-3-3-L-3-3-3-L-|---------------|
--3-3-3-L-3-3-3-L----3-3-3-L-3-3-3-L----3-3-3-L-3-3-3-L-|---------------|
--0-0-0---0-0-0-L----0-0-0-L-0-0-0-L----0-0-0-L-0-0-0-L-|---------------|
--x-x-x-L-x-x-x-L----x-x-x-L-x-x-x-L----x-x-x-L-x-x-x-L-|--2------------|
--2-2-2-L-2-2-2-L----2-2-2-L-2-2-2-L----2-2-2-L-2-2-2-L-|--2------------|
--2-2-2---2-2-2------2-2-2---2-2-2------2-2-2---2-2-2---|--2------------|
 
 
  H.              H.              H.              H.              H.            
---------------|---------------|---------------|---------------|---------------|
---------------|---------------|---------------|---------------|---------------|
---------------|---------------|---------------|---------------|---------------|
--L------------|--L------------|--L------------|--L------------|--L------------|
--L------------|--L------------|--L------------|--L------------|--L------------|
--L------------|--L------------|--L------------|--L------------|--L------------|
 
 
  H.              H.                                                     
---------------|----------------|-------------------|-------------------|
---------------|----------------|-------------------|-------------------|
---------------|----------------|-------------------|-------------------|
--L------------|----------------|-------------------|-------------------|
--L------------|--2b------------|-------------------|-------------------|
--L------------|----------------|-------------------|-------------------|
 
 
   H.                H.                H.                H.             
--(0)------------|--(0)------------|--(0)------------|--(0)------------|
---3-------------|---3-------------|---3-------------|---3-------------|
---0-------------|---0-------------|---0-------------|---0-------------|
---2-------------|---1-------------|---0-------------|---1-------------|
-----------------|-----------------|-----------------|-----------------|
-----------------|-----------------|-----------------|-----------------|
 
 
   H.                H.                H.                H.             
--(0)------------|--(0)------------|--(0)------------|--(0)------------|
---3-------------|---3-------------|---3-------------|---3-------------|
---0-------------|---0-------------|---0-------------|---0-------------|
---2-------------|---1-------------|---0-------------|---1-------------|
-----------------|-----------------|---3-------------|-----------------|
-----------------|-----------------|-----------------|-----------------|
 
 
   H.                H.                H.               H.            
--(0)------------|--(0)------------|--(0)------------|---------------|
---3-------------|---3-------------|---3-------------|---------------|
---0-------------|---0-------------|---0-------------|--6------------|
---2-------------|---1-------------|---0-------------|--x------------|
-----------------|-----------------|-----------------|--4------------|
-----------------|-----------------|-----------------|---------------|
 
 
  H.              H        Q       H.              H.            
---------------|----------------|---------------|---------------|
---------------|----------------|---------------|---------------|
---------------|----------------|---------------|---------------|
---------------|----------------|---------------|---------------|
--3------------|--L-------------|---------------|---------------|
---------------|-----------0----|--1------------|--L------------|
 
 
  H.             
---------------||
---------------||
---------------||
---------------||
---------------||
--L------------||
 
 
 
 
Duration Legend
---------------
W - whole
H - half
Q - quarter
E - 8th
S - 16th
T - 32nd
X - 64th
. - note dotted
|-n-|  - n-tuplets
 
 
Tablature Legend
----------------
L - tied note
x - dead note
g - grace note
(n) - ghost note
> - accentuded note
NH - natural harmonic
AH - artificial harmonic
TH - tapped harmonic
SH - semi harmonic
PH - pitch harmonic
h - hammer on
p - pull off
b - bend
br - bendRelease
pb - preBend
pbr - preBendRelease
brb - bendReleaseBend
\n/ - tremolo bar dip
\n - tremolo bar dive
-/n - tremolo bar Release up
/n\ - tremolo bar inverted dip
/n - tremolo bar return
-\n - tremolo bar Release down
S - shift slide
s - legato slide
/ -  slide into from below or out of upwards
\ -  slide into from above or out of downwards
~ - vibrato
W - wide vibrato
tr - tril'
TP - tremolo picking
T - tapping
S - slap
P - pop
< - fade in
^ - brush up
v - brush down





Comments


Popular Dance Gavin Dance tabs & chords
Me And Zoloft Get Along Just Fine 3 Bass Tabs
Nasa Bass Tabs
Tree Village Bass Tabs
Uneasy Hearts Weigh The Most Bass Tabs
Antlion Tabs
Lemon Meringue Tie 1 Tabs
Lemon Meringue Tie 6 Tabs
Rock Solid Tabs
Surprise Im From Cuba Everyone Has One Brain Tabs
Uneasy Hearts Weigh The Most Intro Tabs


Song lyrics



↑ Back to top | Tablatures and chords are parodies/interpretations of the original songs. You may use it for private study, scholarship, research or language learning purposes only
© 2014 AZChords.com Contact us | Privacy policy | DMCA | Add/correct tabs | Request tabs | Top 50 tabs