» » »

Dance Gavin Dance, Lemon Meringue Tie Tabs (ver.3)

Artists:  A B C D E F G H I J K L M N O P Q R S T U V W X Y Z # 

Lemon Meringue Tie Tabs (ver.3)

Dance Gavin Dance Tabs
 Rating:
4.6/5 (11 votes)
Lemon Meringue Tie lessons Tabs too difficult? Try these video lessons and learn fast
1
                I don't have the whole thing, but here is most of it. this is my first tab so i don't 
how it will be but it should be pretty close. ^ means to bend the string because i don't 
how to put that on tabs.


Inro:
--------------------------------------------------|
----------7-8---10h12p10-----8-7------------------|
--7------------------------------7---7-7----------|
----9------------------------------9--------------|
------10------------------------------------------|
--------------------------------------------------|  4x


tremelo picking
--------------------------------------------------|
---15---12---15---12---15---12---15---12----------|
--------------------------------------------------|
--------------------------------------------------|
--------------------------------------------------|
--------------------------------------------------|

=========================================================

"can you see at all.."

---------------10-----10-12-----------------------|
------10-12-12-----12--------10-10^-8-------------|
--11----------------------------------------------|
--------------------------------------------------|
--------------------------------------------------|
--------------------------------------------------|

---------------10-----10-12-----------------------|
------10-12-12-----12-----------------------------|
--11-------------------------11-11----------------|
--------------------------------------------------|
--------------------------------------------------|
--------------------------------------------------|

---------------10-----10-12-----------------------|
------10-12-12-----12--------10-10^-8-------------|
--11----------------------------------------------|
--------------------------------------------------|
--------------------------------------------------|
--------------------------------------------------|

---------------10-----10-12--14-14^14-------------|
------10-12-12-----12-----------------------------|
--11----------------------------------------------|
--------------------------------------------------|
--------------------------------------------------|
--------------------------------------------------|  2x

========================================================

------------------12--------12--------12----------|
--------------------------------------------------|
--9--11--12h14p12-----14p12-----14p12-------------|
--------------------------------------------------|
--------------------------------------------------|
--------------------------------------------------|

"and now you go.."

---------------10-----10-12-----------------------|
------10-12-12-----12--------10-10^-8-------------|
--11----------------------------------------------|
--------------------------------------------------|
--------------------------------------------------|
--------------------------------------------------|

---------------10-----10-12-----------------------|
------10-12-12-----12-----------------------------|
--11-------------------------11-11----------------|
--------------------------------------------------|
--------------------------------------------------|
--------------------------------------------------|

---------------10-----10-12-----------------------|
------10-12-12-----12--------10-10^-8-------------|
--11----------------------------------------------|
--------------------------------------------------|
--------------------------------------------------|
--------------------------------------------------|

---------------10-----10-12--14-14^14-------------|
------10-12-12-----12-----------------------------|
--11----------------------------------------------|
--------------------------------------------------|
--------------------------------------------------|
--------------------------------------------------|


---------------10-----10-12-----------------------|
------10-12-12-----12--------10-10^-8-------------|
--11----------------------------------------------|
--------------------------------------------------|
--------------------------------------------------|
--------------------------------------------------|

---------------10-----10-12-----------------------|
------10-12-12-----12-----------------------------|
--11-------------------------11-11----------------|
--------------------------------------------------|
--------------------------------------------------|
--------------------------------------------------|

========================================================


--------------------------------------------------|
--11-11-11--9-9-9--7-7-7--------------------------|
--------------------------7-7-7-7---9-9-9---------|
--------------------------------------------------|
--------------------------------------------------|
--------------------------------------------------|

"I don't know why.."

tremelo picking
--------17-15-14----------------------------------|
--12-15----------15-12-15-10--12p0-12p0-----------|
--------------------------------------------------|
--------------------------------------------------|
--------------------------------------------------|
--------------------------------------------------|

--------17-15-14----12-14-------------------------|
--12-15----------15-------------------------------|
--------------------------------------------------|
--------------------------------------------------|
--------------------------------------------------|
--------------------------------------------------| 2x

======================================================
"Stage lights are burning up, running faster to this spot, staring at these faces, torn 
all these places, and I wont go..."
======================================================

slow part

--------------------------------------------------|
--------------------------------------------------|
--------------------------------------------------|
--5-12/12-5---------------------------------------|
--------------------------------------------------|
--------------------------------------------------| 16x


Breakdown

---------------10-----10-12-----------------------|
------10-12-12-----12--------10-10^-8-------------|
--11----------------------------------------------|
--------------------------------------------------|
--------------------------------------------------|
--------------------------------------------------|

---------------10-----10-12-----------------------|
------10-12-12-----12-----------------------------|
--11-------------------------11-11----------------|
--------------------------------------------------|
--------------------------------------------------|
--------------------------------------------------|

---------------10-----10-12-----------------------|
------10-12-12-----12--------10-10^-8-------------|
--11----------------------------------------------|
--------------------------------------------------|
--------------------------------------------------|
--------------------------------------------------|

--------------------------------------------------|
--10p0--8p0--7p0--5p0-----------------------------|
-----------------------7p9-9^^^-------------------|
--------------------------------------------------|
--------------------------------------------------|
--------------------------------------------------|

"and i don't know why.."

tremelo picking
--------17-15-14----------------------------------|
--12-15----------15-12-15-10--12p0-12p0-----------|
--------------------------------------------------|
--------------------------------------------------|
--------------------------------------------------|
--------------------------------------------------|

--------17-15-14----12-14-------------------------|
--12-15----------15-------------------------------|
--------------------------------------------------|
--------------------------------------------------|
--------------------------------------------------|
--------------------------------------------------|  2x
            
Submit corrections

comments powered by Disqus
↑ Back to top | Dance Gavin Dance Tabs for Lemon Meringue Tie. Lyrics for acoustic guitar and electric guitar. 1 Tablatures and chords are parodies/interpretations of the original songs. You may use it for private study, scholarship, research or language learning purposes only