» » »

Dance Gavin Dance, Uneasy Hearts Weigh The Most Tabs (ver.1)

Artists:  A B C D E F G H I J K L M N O P Q R S T U V W X Y Z # 

Uneasy Hearts Weigh The Most Tabs (ver.1)

Dance Gavin Dance Tabs
Rating:
0/5 (0 votes)
Uneasy Hearts Weigh The Most lessons Tabs too difficult? Try these video lessons and learn fast
                Go ahead and watch this video.
It helps a bit.


Tuning: Drop D
PLEASE RATE!!! Worked fairly hard
I've seen the other tabs for this song, which are questionable.
Not saying mines isn't. I tabbed it all on my own. I'm sure its about 97% accurate...

You don't play the slides every time so listen to the song carefully
to know when. Play this until he starts the chorus.
INTRO/VERSE
e|-------9------------9--------------4------------4-------------------------|
B|------10-----------10-------------5------------5--------------------------|
G|-----11-----------11-------------6------------6---------------------------|
D|----12-----------12-------------7------------7----------------------------|
A|----------9-9-----------9-9-----------4-4--------------4------5-----------|
D|--9------9---9--9------9---9---4-----4---4--4-------4/6--6-6/7------------|

Guitar 2(not sure about any of this sorry...well it doesn't sound wrong lol)
e|---------------------------------------------------------------------------|
B|---------------------------------------------------------------------------|
G|---13~----11--13~---13~-9---11\--twice-------------------------------------|
D|---16-----13--16----16--12--13\--------------------------------------------|
A|---------------------------------------------------------------------------|
D|---------------------------------------------------------------------------|


That's when you start playing this bit. 

CHORUS 1
e|--------------------------------------------------------------------------|
B|--------------------------------------------------------------------------|
G|--------------------------------------------------------------------------|
D|--7/9-9-9-9-7-9-11-7-4-7-------------------4-4-4-4-4-2-4-9-7--------------|
A|--x/x-x-x-x-x-x-x--x-x-x--play that twice--x-x-x-x-x-x-x-x-x-twice--------|
D|--7/9-9-9-9-7-9-11-7-4-7-------------------4-4-4-4-4-2-4-9-7--------------|

it changes a little
Guitar 1
e|--------------------------------------------------------------------------|
B|--------------------------------------------------------------------------|
G|----------------------------------------------------|------twice------|---|
D|--7/9-9-9-9-7-9-11-7-4-7--7/9-9-9-9-7-9-11-12-11-9\-|4-4-4-4-4-2-4-9-7|---|
A|--x/x-x-x-x-x-x-x--x-x-x--x/x-x-x-x-x-x-x--x--x--x\-|x-x-x-x-x-x-x-x-x|---|
D|--7/9-9-9-9-7-9-11-7-4-7--7/9-9-9-9-7-9-11-12-11-7\-|4-4-4-4-4-2-4-9-7|---|

Guitar2
e|--------------------------------------------------------------------------|
B|--------------------------------------------------------------------------|
G|------------------------------------------------------------twice---------|
D|--7/9-9-9-9-7-9-11-7-4-7--7/9-9-9-9-7-9-14-12-11-9\-|4-4-4-4-4-2-4-9-7|---|
A|--x/x-x-x-x-x-x-x--x-x-x--x/x-x-x-x-x-x-x--x--x--x\-|x-x-x-x-x-x-x-x-x|---|
D|--7/9-9-9-9-7-9-11-7-4-7--7/9-9-9-9-7-9-14-12-11-7\-|4-4-4-4-4-2-4-9-7|---|

Play the INTRO/VERSE part after that. The solo is also going on.
Goes like this..
SOLO Guitar 2
e|--14b---17-15-14-------------14\----21-17-------17-21-17------17-19~------|
B|--17b------------17-16-14--17-------------19--19--------19--19------------|
G|--------------------------------------------18------------18--------------|
D|--------------------------------------------------------------------------|
A|--------------------------------------------------------------------------|
D|--------------------------------------------------------------------------|

These are quiet            |exactly here he starts singing
e|---------------------------------------------------------------------------|
B|--17-19-17-19~----17-19-17----17----------------17-----------17------------|
G|--------------------------18-18-18----18-16--18---18-18-16-18---18--16--14~|
D|---------------------------------------------------------------------------|
A|---------------------------------------------------------------------------|
D|---------------------------------------------------------------------------|

e|---------------------------------------------------------------------------|
B|---13~-11--13~---------------------------------------------------------------------|
G|---------------------------------------------------------------------------|
D|---------------------------------------------------------------------------|
A|---------------------------------------------------------------------------|
D|---------------------------------------------------------------------------|
Back to the INTRO/CHORUS.
Guitar 2 does something different towards the end of it.
But I'm not exactly sure what he does
Then CHORUS 1 again.
I call it CHORUS 1 cuz this one is
 
CHORUS 2("Holy sh*t she smells like heaven")
Guitar 1. Just play chords a necessary. I don't think I need to
type them in a million times. The url of the video
is right up there. 
e|----------------9---------------------------------------------------------|
B|--7-------------7--------------5------------9-----------------------------|x2
G|--7-->chord 1---7--->chord 2---6-->chord 3--x->chord4---------------------|
D|--x-------------x--------------x------------9-----------------------------|
A|--5-------------5--------------5------------7-----------------------------|
D|--------------------------------------------------------------------------|
Guitar 2
e|---------------------------------------------------------------------------|
B|---------------------------------------------------------------------------|
G|---------------------------------------------------------------------------|
D|---9-9-7-9-7-9--9-11-9-7----7/9-9-7-9-7-9--9-11-9-7----7/9-9-7--7-9-7-----|
A|-------------------------9--------------------------9----------9------9-7-9|
D|---------------------------------------------------------------------------|

e|--------------------------------------------------------------------------|
B|--------------------------------------------------------------------------|
G|---7/9-9-7-7-9-7--------------play-that-twice-----------------------------|
D|----------9------9-9\-----------------------------------------------------|
A|--------------------------------------------------------------------------|
D|--------------------------------------------------------------------------|
Then you play.

BREAKDOWN(laughs) Use this little chord and play along with the song.Play
it as many times necessary. 
e|--9------------------------------------------------------------------------|
B|--7------------------------------------------------------------------------|
G|--7------------------------------------------------------------------------|
D|---------------------------------------------------------------------------|
A|---------------------------------------------------------------------------|
D|---------------------------------------------------------------------------
(yells) play this over n over. Throw in a couple
of slides when needed. 
e|---------------------------------------------------------------------------|
B|---------------------------------------------------------------------------|
G|---------------------------------------------------------------------------|
D|---4------------------------------------------------------------------------|
A|---x------------------------------------------------------------------------|
D|---4------------------------------------------------------------------------

Then you Play CHORUS 2 again. And you're DONE!!!

| b  bend
| r  release 
| /  slide up
| \  slide down
| h  hammer-on
| p  pull-off
| ~  vibrato
| +  harmonic
| x  Mute note
            

comments powered by Disqus
↑ Back to top | Dance Gavin Dance Tabs for Uneasy Hearts Weigh The Most. Lyrics for acoustic guitar and electric guitar. Tablatures and chords are parodies/interpretations of the original songs. You may use it for private study, scholarship, research or language learning purposes only