» » »

Vance Joy - Georgia Tabs

Artists:  A B C D E F G H I J K L M N O P Q R S T U V W X Y Z # 

Georgia Tabs

(ver. 3) Click to play this song!
Vance Joy
 Rating:
4.2/5 (22 votes)

 Georgia  lessons Tabs too difficult? Try these video lessons and learn fast
 
                Tuning: Standard E
Relative to capo
e|---------------------------------------------------------------------------|
B|-----8--------------8----------------8----------3----------5---------5-----|
G|----------0---------------0-------------------------0----------------------|
D|---------------------------------------------------------------------------|
A|--7------------7----------------7---------2----------------3------3--------|
E|---------------------------------------------------------------------------|

e|---------------------------------------------------------------------------|repeat for the rest of the song
B|-----7----------7-----------7------------3---------5---------5-------------|
G|---------0---------0-------------------------0-----------------------------|
D|---------------------------------------------------------------------------|
A|--5----------5---------5------------2--------------3------3----------------|
E|---------------------------------------------------------------------------|
            
Submit corrections


        Georgia  lessons Hard to play? Try these video lessons and learn fast Georgia  lessons
        
↑ Back to top | Tablatures and chords for acoustic guitar and electric guitar, ukulele, drums are parodies/interpretations of the original songs. You may use it for private study, scholarship, research or language learning purposes only