» » »

Vance Joy - Georgia Tabs

Artists:  A B C D E F G H I J K L M N O P Q R S T U V W X Y Z # 

Georgia Tabs

(ver. 4) Click to play this song!
Vance Joy
 Rating:
4.4/5 (7 votes)

 Georgia lessons Tabs too difficult? Try these video lessons and learn fast
 
                [Intro]

e|---------------------------------------------------------------------------|
B|-----8---8--------3--/5-5--------7---7--------3---/5-5---------------------|
G|------0---0-0------0-----0-0------0---0-0------0------0-0------------------|
D|---------------------------------------------------------------------------| 2x
A|----7---7--7-----2---/3---3-----5---5--5-----2----/3---3-------------------|
E|---------------------------------------------------------------------------|

{INSTRUMENTAL}

[Verse 1]

e|---------------------------------------------------------------------------|
B|-----8---8--------3--/5-5--------7---7--------3---/5-5---------------------|
G|------0---0-0------0-----0-0------0---0-0------0------0-0------------------|
D|---------------------------------------------------------------------------| 4x
A|----7---7--7-----2---/3---3-----5---5--5-----2----/3---3-------------------|
E|---------------------------------------------------------------------------|

She is something to behold
Elegant and bold
She is electricity
Running to my soul, oooh

e|---------------------------------------------------------------------------|
B|-----5--5--------7--7--7---------------------------------------------------|
G|------0--0-0------0--0-----------------------------------------------------|
D|---------------------------------------------------------------------------|
A|----3--3--3-----5--5--5----------------------------------------------------|
E|---------------------------------------------------------------------------|

{INSTRUMENTAL}


[Chorus]

e|---------------------------------------------------------------------------|
B|-----8--8--------7--7--------0--0--------5--5------------------------------|
G|------0--0-0------0--0-0------0--0-0------0--0-0---------------------------|
D|---------------------------------------------------------------------------|
A|----7--7--7-----5--5--5-----------------3--3--3----------------------------| 3x
E|----------------------------3--3--3----------------------------------------|

And I could easily lose my mind
The way you kiss me will work each time
Calling me to come back to bed
Singing Georgia on my mind

And I, and I

e|---------------------------------------------------------------------------|
B|-----8--8--------7--7--------0--0------------------------------------------|
G|------0--0-0------0--0-0------0--0-0---------------------------------------|
D|---------------------------------------------------------------------------|
A|----7--7--7-----5--5--5----------------------------------------------------| 
E|----------------------------3--3--3-3--------------------------------------|

{INSTRUMENTAL}

[Verse 2 (same as verse 1)]

e|---------------------------------------------------------------------------|
B|-----8---8--------3--/5-5--------7---7--------3---/5-5---------------------|
G|------0---0-0------0-----0-0------0---0-0------0------0-0------------------|
D|---------------------------------------------------------------------------| 4x
A|----7---7--7-----2---/3---3-----5---5--5-----2----/3---3-------------------|
E|---------------------------------------------------------------------------|

Lips generous and warm
You build me up like steps
Eyes innocent and wild
Remind me what it's like, oooh

e|---------------------------------------------------------------------------|
B|-----5--5--------7--7--7---------------------------------------------------|
G|------0--0-0------0--0-----------------------------------------------------|
D|---------------------------------------------------------------------------|
A|----3--3--3-----5--5--5----------------------------------------------------|
E|---------------------------------------------------------------------------|

{INSTRUMENTAL}


[Chorus]

e|---------------------------------------------------------------------------|
B|-----8--8--------7--7--------0--0--------5--5------------------------------|
G|------0--0-0------0--0-0------0--0-0------0--0-0---------------------------|
D|---------------------------------------------------------------------------| 3x
A|----7--7--7-----5--5--5-----------------3--3--3----------------------------| 
E|----------------------------3--3--3----------------------------------------|

And I could easily lose my mind
The way you kiss me will work each time
Pulling me back into the flames
And I'm burning up again, I'm burning up

And I, I never understood what was at stake
I never thought your love was worth it's wait
Well now you've come and gone
I finally worked it out, I worked it out

[Verse 3]

e|---------------------------------------------------------------------------|
B|----8----7----5----12------------------------------------------------------|
G|----0----0----0-----0------------------------------------------------------|
D|---------------------------------------------------------------------------| 3x
A|----7----5----3----10------------------------------------------------------|
E|---------------------------------------------------------------------------| 


I never should have told you
I never should have let you see inside
Don't want it troubling in your mind
Won't you let it be

I never should have told you
I never should have let you see inside
Don't want it troubling in your mind
Won't you let it be

I never should have told you
I never should have let you see inside
Don't want it troubling in your mind
Won't you let it be

e|-------------------------------------------------------------------------------------|
B|-----8--8-----7--7-5-----0--0-----5--5-3-----8--8-----7--7--/12--12---12----5--------|
G|------0--------0----------0--------0----------0--------0-----------0--------0--------|
D|-------------------------------------------------------------------------------------|
A|----7--7-----5--5----------------3--3-------7--7-----5--5------10---10------3--------|
E|------------------------3--3---------------------------------------------------------|

{INSTRUMENTAL}


[Chorus outro]

e|---------------------------------------------------------------------------|
B|-----8--8--------7--7--------0--0--------5--5------------------------------|
G|------0--0-0------0--0-0------0--0-0------0--0-0---------------------------|
D|---------------------------------------------------------------------------| 6x
A|----7--7--7-----5--5--5-----------------3--3--3----------------------------| 
E|----------------------------3--3--3----------------------------------------|

And I could easily lose my mind
The way you kiss me will work each time
Pulling me back into the flames
And I'm burning up again, I'm burning up

And I, I never understood what was at stake
I never thought your love was worth it's wait
Well now you've come and gone
I finally worked it out, I worked it out, oh, ooh, oh            
Submit corrections


        Georgia lessons Hard to play? Try these video lessons and learn fast Georgia lessons
        
↑ Back to top | Tablatures and chords for acoustic guitar and electric guitar, ukulele, drums are parodies/interpretations of the original songs. You may use it for private study, scholarship, research or language learning purposes only