» » »

Vance Joy - Georgia Tabs

Artists:  A B C D E F G H I J K L M N O P Q R S T U V W X Y Z # 

Georgia Tabs

(ver. 1) Click to play this song!
Vance Joy
 Rating:
2.7/5 (29 votes)

 Georgia  lessons Tabs too difficult? Try these video lessons and learn fast
 
                INTRO/VERSE:
  G#m              D#m   E           F#              D#m   E
e|---7-----7---------2-----4-------|---6-----6---------2-----4-----4---|
B|-----0-----0---0-----0-----0---0-|-----0-----0---0-----0-----0-----0-|
G|---------------------------------|-----------------------------------|
D|-6-----6-----6---1----/2-----2---|-4-----4-----4---1----/2-----2-----|
A|---------------------------------|-----------------------------------|
E|---------------------------------|-----------------------------------|


[PRE-CHORUS]:
   E               F#
e|---4-----4---------6-----6-----6~---------------14~---|
B|-----0-----0---0-----0-----0-------------------12~----|
G|------------------------------------------------------|
D|-2-----2-----2--/4-----4-----4------------------------|
A|------------------------------------------------------|
E|------------------------------------------------------|


CHORUS:
   G#m             F#                 B               E
e|---7-----7---------6-----6-------|-------------------4-----4---------|
B|-----0-----0---0-----0-----0---0-|---4-----4-----------0-----0---0---|
G|---------------------------------|-----4-----4---4-------------------|
D|-6-----6-----6---4-----4-----4---|-----------------2-----2-----2-----|
A|---------------------------------|-2-----2-----2---------------------|
E|---------------------------------|-----------------------------------| x4


BRIDGE:
   E        F#       G#m      B
e|-4--------6--------7--------11---|
B|-0--------0--------0--------0----|
G|---------------------------------|
D|-2--------4--------6--------9----|
A|---------------------------------|
E|---------------------------------| x4


Instrumental bit between bridge and last chorus:
   G#m             F#                B/Eb            E
e|---7-----7\--------6-----6---4\--|-------------------4------4---2---|
B|-----0---------------0-----------|---4-----4-----------0------------|
G|---------------------------------|-----4----------------------------|
D|-6-----6---------4-----4---------|-1-----1---------2-----2----------|
A|---------------------------------|----------------------------------|
E|---------------------------------|----------------------------------|

   G#m             F#                B               E
e|---7-----7\--------6-----6-------|---11----11------4~---------------|
B|-----0---------------0-----------|-----0-----------0~---------------|
G|---------------------------------|----------------------------------|
D|/6-----6---------4-----4---------|-9-----9---------2~---------------|
A|---------------------------------|----------------------------------|
E|---------------------------------|----------------------------------|            
Submit corrections


        Georgia  lessons Hard to play? Try these video lessons and learn fast Georgia  lessons
        
↑ Back to top | Tablatures and chords for acoustic guitar and electric guitar, ukulele, drums are parodies/interpretations of the original songs. You may use it for private study, scholarship, research or language learning purposes only