» » »

Vance Joy - Georgia Tabs

Artists:  A B C D E F G H I J K L M N O P Q R S T U V W X Y Z # 

Georgia Tabs

(ver. 2) Click to play this song!
Vance Joy
 Rating:
2.5/5 (23 votes)

 Georgia  lessons Tabs too difficult? Try these video lessons and learn fast
 
                
Capo 4th fret 
* Strum once

Verse:
  Em                  Bm         C
e|-----------------------------------|
B|--12-----12------12--7-----9-----9-|
G|------0------0---------0-----0-----|
D|-----------------------------------|
A|11-----11-----11---6----/7-----7---|
E|-----------------------------------|
    D                Bm       C
e|-----------------------------------|
B|---11----11----11----7----9------9-|
G|-----0-----0-----------0-----0-----|
D|-----------------------------------|
A|-9-----9-----9----6----/7------7---|
E|-----------------------------------|

Or:

//:Em    /Bm C    /D     /Bm C   ://
/C       /D       /D     //

She is something to behold     elegant and Bold
She is electricity             Running through my soul

Chorus
//: Em    /D    /G    /C    ://

And I could easily lose my mind    The way you kiss me to work each time 
Calling me to come back to bed     Singing Georgia on my mind
And I...                           And I...

Verse 2:
  Em                  Bm         C
e|-----------------------------------|
B|--12-----12------12--7-----9-----9-|
G|------0------0---------0-----0-----|
D|-----------------------------------|
A|11-----11-----11---6----/7-----7---|
E|-----------------------------------|

    D                Bm       C
e|-----------------------------------|
B|---11----11----11----7----9------9-|
G|-----0-----0-----------0-----0-----|
D|-----------------------------------|
A|-9-----9-----9----6----/7------7---|
E|-----------------------------------|

Or:

//:Em    /Bm C    /D     /Bm C   ://
/C       /D       /D     //

Lips generous and warm    You build me up like steps
Eyes innocent and wild    Remind me what it's like

Chorus
//: Em    /D    /G    /C    ://x4

And I could easily lose my mind    The way you kiss me to work each time
Pulling me back into the flames    And I'm burning up again, I'm burning up
And I, I never understood what was at stake
I never thought your love was worth 
It's wait, week now you've come and gone 
I finally worked it out, I worked it out

Bridge:
//:C*    /D*    /Em*    /G*    ://x4

I never should have told you       I never should have let you see inside
Don't want it troubling your mind  Won't you let it be

Interlude:
/Em    /D    /Bm    /c    ://

Or pick the notes (using the notes from previous picking), pick each for one round:            
Submit corrections


        Georgia  lessons Hard to play? Try these video lessons and learn fast Georgia  lessons
        
↑ Back to top | Tablatures and chords for acoustic guitar and electric guitar, ukulele, drums are parodies/interpretations of the original songs. You may use it for private study, scholarship, research or language learning purposes only