Home » T » Two Door Cinema Club »

Two Door Cinema Club - What You Know Chords

Artists:  A B C D E F G H I J K L M N O P Q R S T U V W X Y Z # 

What You Know Chords

(ver. 2) Click to play this song!
Two Door Cinema Club
[Intro]

Am7 (G6/B) C F (2x)

e|---3-5-3--------3-5-3--------3-5-3-----8-7-7-8-7--|
B|-5-------5-5--5-------3-5--5-------5-5----------5-|
G|--------------------------------------------------|

e|---3-5-3--------3-5-3--------3-5-3-----8-7-7-8-7---|
B|-5-------5-5--5-------3-1--5-------5-5----------5~-|
G|---------------------------------------------------|

[Verse 1]

Am7
In a few weeks I will get time
G6(9)                           Em
To realize it's right before my eyes
                           F             Am7
And I can take it if it's what I want to do

[Verse 2]

e|-----5-5-5-3-3-3-3-|
B|-------------------|(3x)
G|-2-2---------------|

e|------------------------|
B|------------------------|
G|-2-2--2--2-2--2--2-2--2-|

Am7
I am leaving
              G6(9)
This is starting to feel like
                     Em
It's right before my eyes
                             F
And I can taste it, it's my sweet beginning

[Chorus 1]

e|---3-5-3--------3-5-3--------3-5-3-----8-7-7-8-7--|
B|-5-------5-5--5-------3-5--5-------5-5----------5-|
G|--------------------------------------------------|

e|---3-5-3--------3-5-3--------3-5-3-----8-7-7-8-7---|
B|-5-------5-5--5-------3-1--5-------5-5----------5~-|
G|---------------------------------------------------|

Am7                 G6/B      C
And I can tell just what you want
                       F
You don't want to be alone
F                     Am7
You don't want to be alone

[Chorus 2]

e|---3-5-3--------3-5-3--------3-5-3-----8-7-7-8-7--|
B|-5-------5-5--5-------3-5--5-------5-5----------5-|
G|--------------------------------------------------|

e|---3-5-3--------3-5-3--------3-5-3-----8-7-7-8-7---|
B|-5-------5-5--5-------3-1--5-------5-5----------5~-|
G|---------------------------------------------------|

Am7                  G6/B      C
And I can't say it's what you know
                               F
But you've known it the whole time
F                               Am7
Yeah, you've known it the whole time

[Verse 3]
Am7                               G6(9)
Maybe next year I'll have no time
                                    Em
To think about the questions to address
                        F
Am I the one to try to stop the fire?

[Verse 4]

e|-----5-5-5-3-3-3-3-|
B|-------------------|(3x)
G|-2-2---------------|

e|------------------------|
B|------------------------|
G|-2-2--2--2-2--2--2-2--2-|

Am7
I wouldn't test you
                      G
I'm not the best you could have attained
            Em
Why try anything?
Em
I will get there
      F
Just remember I know

[Chorus 1]

e|---3-5-3--------3-5-3--------3-5-3-----8-7-7-8-7--|
B|-5-------5-5--5-------3-5--5-------5-5----------5-|
G|--------------------------------------------------|

e|---3-5-3--------3-5-3--------3-5-3-----8-7-7-8-7---|
B|-5-------5-5--5-------3-1--5-------5-5----------5~-|
G|---------------------------------------------------|

Am7                 G6/B      C
And I can tell just what you want
                       F
You don't want to be alone
F                     Am7
You don't want to be alone

[Chorus 2]

e|---3-5-3--------3-5-3--------3-5-3-----8-7-7-8-7--|
B|-5-------5-5--5-------3-5--5-------5-5----------5-|
G|--------------------------------------------------|

e|---3-5-3--------3-5-3--------3-5-3-----8-7-7-8-7---|
B|-5-------5-5--5-------3-1--5-------5-5----------5~-|
G|---------------------------------------------------|

Am7                  G6/B      C
And I can't say it's what you know
                               F
But you've known it the whole time
F                               Am7
Yeah, you've known it the whole time

[Bridge]

e|-------------|
B|-------------|(2x)
G|-2-2-2-2-5x--|

Am7 Em (4x)

e|-2/5-3----|
B|-------5--|(3x)
G|----------|

[Chorus 1]

e|---3-5-3--------3-5-3--------3-5-3-----8-7-7-8-7--|
B|-5-------5-5--5-------3-5--5-------5-5----------5-|
G|--------------------------------------------------|

e|---3-5-3--------3-5-3--------3-5-3-----8-7-7-8-7---|
B|-5-------5-5--5-------3-1--5-------5-5----------5~-|
G|---------------------------------------------------|

Am7                 G6/B      C
And I can tell just what you want
                       F
You don't want to be alone
F                     Am7
You don't want to be alone

[Chorus 2]

e|---3-5-3--------3-5-3--------3-5-3-----8-7-7-8-7--|
B|-5-------5-5--5-------3-5--5-------5-5----------5-|
G|--------------------------------------------------|

e|---3-5-3--------3-5-3--------3-5-3-----8-7-7-8-7~-|
B|-5-------5-5--5-------3-1--5-------5-5------------|
G|--------------------------------------------------|

Am7                  G6/B      C
And I can't say it's what you know
                               F
But you've known it the whole time
F                               Am7
Yeah, you've known it the whole time
            
Submit corrections

↑ Back to top | Tablatures and chords for acoustic guitar and electric guitar, ukulele, drums are parodies/interpretations of the original songs. You may use it for private study, scholarship, research or language learning purposes only