Home » T » Two Door Cinema Club »

Two Door Cinema Club - Eat That Up, It's Good For You Tabs

Artists:  A B C D E F G H I J K L M N O P Q R S T U V W X Y Z # 

Eat That Up, It's Good For You Tabs

(ver. 1) Click to play this song!
Two Door Cinema Club
-------------------------------------------------------------------------------
-------------------------------------------------------------------------------

I will add the verse lead guitar shortly. Corrections welcome!

Tuning: Standard

INTRO/CHORUS

Chords: F Gm Dm

Lyrics below are just a guide to know when the notes are played.

   It's too late    it's too late  you've got            and it's...
e|---------------------------------------------------------------17-|
B|-------------------------------------15----------------------15---|
G|---14141414-----141717171714-----1417--1717-----1417-----1417-----|
D|-17--------17------------------17-------------17-------17---------|
A|------------------------------------------------------------------|
E|------------------------------------------------------------------|

CHORUS

F
It's too late
It's too late
           
           Gm
You've got another one coming
         
         Dm
And it's going to be the same


BRIDGE

Guitar 1

(1:50-2:20)

e|-------------|
B|-------------|
G|-10-10-10-10-|
D|-x--x--x--x--|
A|-8--8--8--8--|
E|-------------|

Guitar 2

(2:00-2:20)

Pick notes quickly!

e|-------------------------|
B|-------------------------|
G|-14-141414---------------|
D|-----------171717-151715-|
A|-------------------------|
E|-------------------------


OUTRO

(2:20 onwards)

F
It's not the same
It's not the same
It's not the same

Am
You're going to tell me that I'm right

A#
You're going to come back down
And find yourself

F
Where you are again

Guitar 2

e|-15151515151715---151715---151715----------|
B|------------------------------------151315-|
G|-------------------------------------------|
D|-------------------------------------------|
A|-------------------------------------------|
E|-------------------------------------------|
            
Submit corrections

↑ Back to top | Tablatures and chords for acoustic guitar and electric guitar, ukulele, drums are parodies/interpretations of the original songs. You may use it for private study, scholarship, research or language learning purposes only