Home » T » Two Door Cinema Club »

Two Door Cinema Club - What You Know Bass

Artists:  A B C D E F G H I J K L M N O P Q R S T U V W X Y Z # 

What You Know Bass

(ver. 1) Click to play this song!
Two Door Cinema Club
[Intro]
 
8 Bar Rest
 
G|--------------|-----------/6----|--------------|-----------2------|
D|-4--4--4-4--4-|-4-4--4--4-----6-|--------------|--------------2/4-|
A|--------------|-----------------|-0--0--0-0--0-|-0-0--0--0--------|
E|--------------|-----------------|--------------|------------------|
 
G|--------------|-----------/6----|--------------|------------------|
D|--------------|---------------6-|--------------|--------------2/4-|
A|-5--5--5-5--5-|-5-5--5--5-------|--------------|-----------4------|
E|--------------|-----------------|-2--2--2-2--2-|-2-2--2--2--------|
 
 
 
[Verse 1]
 
8 Bar Rest
 
G|----6----6-----4-|----6----6-----4-|----4----4--2--4-|----4----4--2--4-|
D|-4-----4----7----|-4-----4----7----|-2-----2---------|-2-----2---------|
A|-----------------|-----------------|-----------------|-----------------|
E|-----------------|-----------------|-----------------|-----------------|
 
G|----2----2-------|----2----2-------|--------------|-------------------|
D|------------2--4-|------------2--4-|----4-------4-|------4-------4----|
A|-4-----4---------|-4-----4---------|-5-----5-5----|-5-5-----5-5-----5-|
E|-----------------|-----------------|--------------|-------------------|
 
 
 
[Chorus]
 
G|--------------|-----------/6----|--------------|-----------2------|    |
D|-4--4--4-4--4-|-4-4--4--4-----6-|--------------|--------------2/4-|    |
A|--------------|-----------------|-0--0--0-0--0-|-0-0--0--0--------|    |
E|--------------|-----------------|--------------|------------------|    |
                                                                         | x2
G|--------------|-----------/6----|--------------|------------------|    |
D|--------------|---------------6-|--------------|--------------2/4-|    |
A|-5--5--5-5--5-|-5-5--5--5-------|--------------|-----------4------|    |
E|--------------|-----------------|-2--2--2-2--2-|-2-2--2--2--------|    |
 
 
 
[Verse 2]
 
G|----6----6-----4-|----6----6-----4-|----4----4--2--4-|----4----4--2--4-|  |
D|-4-----4----7----|-4-----4----7----|-2-----2---------|-2-----2---------|  |
A|-----------------|-----------------|-----------------|-----------------|  |
E|-----------------|-----------------|-----------------|-----------------|  |
                                                                            | x2
G|----2----2-------|----2----2-------|--------------|-------------------|   |
D|------------2--4-|------------2--4-|----4-------4-|------4-------4----|   |
A|-4-----4---------|-4-----4---------|-5-----5-5----|-5-5-----5-5-----5-|   |
E|-----------------|-----------------|--------------|-------------------|   |
 
 
 
[Chorus]
 
G|--------------|-----------/6----|--------------|-----------2------|    |
D|-4--4--4-4--4-|-4-4--4--4-----6-|--------------|--------------2/4-|    |
A|--------------|-----------------|-0--0--0-0--0-|-0-0--0--0--------|    |
E|--------------|-----------------|--------------|------------------|    |
                                                                         | x2
G|--------------|-----------/6----|--------------|------------------|    |
D|--------------|---------------6-|--------------|--------------2/4-|    |
A|-5--5--5-5--5-|-5-5--5--5-------|--------------|-----------4------|    |
E|--------------|-----------------|-2--2--2-2--2-|-2-2--2--2--------|    |
 
 
 
[Interlude]
 
2 Bar Rest
 
G|-----------------|-----------------|-----------------|-----------------|
D|-4-4-4-4-4-4-4-4-|-----------------|-----------------|-----------------|
A|-----------------|-4-4-4-4-4-4-4-4-|-----------------|-4-4-4-4-4-4-4-4-|
E|-----------------|-----------------|-2-2-2-2-2-2-2-2-|-----------------|
 
G|-----------------|-----------------|-----------------|-----------------|
D|-4-4-4-4-4-4-7-4-|-----------------|-----------------|-----------------|
A|-----------------|-4-4-4-4-4-4-4-4-|-----------------|-4-4-4-4-4-4-4-4-|
E|-----------------|-----------------|-2-2-2-2-2-2-2-2-|-----------------|
 
 
 
[Chorus]
 
G|--------------|-----------/6----|--------------|-----------2------|
D|-4--4--4-4--4-|-4-4--4--4-----6-|--------------|--------------2/4-|
A|--------------|-----------------|-0--0--0-0--0-|-0-0--0--0--------|
E|--------------|-----------------|--------------|------------------|
 
G|--------------|-----------/6----|--------------|------------------|
D|--------------|---------------6-|--------------|--------------2/4-|
A|-5--5--5-5--5-|-5-5--5--5-------|--------------|-----------4------|
E|--------------|-----------------|-2--2--2-2--2-|-2-2--2--2--------|
 
 
G|--------------|-----------/6----|--------------|-----------2------|
D|-4--4--4-4--4-|-4-4--4--4-----6-|--------------|--------------2/4-|
A|--------------|-----------------|-0--0--0-0--0-|-0-0--0--0--------|
E|--------------|-----------------|--------------|------------------|
 
G|--------------|-----------/6----|--------------|-----------------|
D|--------------|---------------6-|--------------|--------------2~-|
A|-5--5--5-5--5-|-5-5--5--5-------|--------------|-----------4-----|
E|--------------|-----------------|-2--2--2-2--2-|-2-2--2--2-------|
            
Submit corrections

↑ Back to top | Tablatures and chords for acoustic guitar and electric guitar, ukulele, drums are parodies/interpretations of the original songs. You may use it for private study, scholarship, research or language learning purposes only