Home » T » Two Door Cinema Club »

Two Door Cinema Club - Pyramid Tabs

Artists:  A B C D E F G H I J K L M N O P Q R S T U V W X Y Z # 

Pyramid Tabs

(ver. 1) Click to play this song!
Two Door Cinema Club
Intro/Verse: (with some delay)
e|-----------------17----------|-----|
B|-17--------------------17----|-0~--|
G|---16------14h16----16-------|-----|
D|-----------------------------|-----|
A|-----------------------------|-----|
E|-----------------------------|-----|

Chorus:
e|------------------------------------------|
B|------------------------------------------|
G|-19191919-16161616-19191919-161616-14-12--|
D|-x-x-x-x--x-x-x-x--x-x-x-x--x-x-x--x--x---|
A|-17171717-14141414-17171717-141414-12-10--|
E|------------------------------------------|

e|------------------------------------------|
B|------------------------------------------|
G|-19191919-16161616-19191919-161616-14-12--|
D|-x-x-x-x--x-x-x-x--x-x-x-x--x-x-x--x--x---|
A|-17171717-14141414-17171717-141414-12-10--|
E|------------------------------------------|

e|---------------------------------------------------------------------|
B|---------------------------------------------------------------------|
G|-14141414-12121212-9-9-9-9-12\9/12-9-9-9-9-9-9-9-9--4-4-4-4-4-4-4-4--|
D|-x-x-x-x--x-x-x-x--x-x-x-x-x--x-x--x-x-x-x-x-x-x-x--x-x-x-x-x-x-x-x--|
A|-12121212-10101010-7-7-7-7-10\7/10-7-7-7-7-7-7-7-7--2-2-2-2-2-2-2-2--|
E|---------------------------------------------------------------------|

Bridge: (insert bends where you see fit)
e|-----------------------------------15----15-------19-19-17--19~--|
B|-15-17-----------------15-17----------17----17~------------------|
G|-------16~----16-14----------16~---------------------------------|
D|--------------------17-------------------------------------------|
A|-----------------------------------------------------------------|
E|-----------------------------------------------------------------|

End on C:
e|-----------------|
B|-----------------|
G|-4-4-4-4-4-4-4-5-|
D|-x-x-x-x-x-x-x-x-|
A|-2-2-2-2-2-2-2-3-|
E|-----------------|

            
Submit corrections

↑ Back to top | Tablatures and chords for acoustic guitar and electric guitar, ukulele, drums are parodies/interpretations of the original songs. You may use it for private study, scholarship, research or language learning purposes only