Home » T » Two Door Cinema Club »

Two Door Cinema Club - What You Know Tabs

Artists:  A B C D E F G H I J K L M N O P Q R S T U V W X Y Z # 

What You Know Tabs

(ver. 2) Click to play this song!
Two Door Cinema Club
[Solo]
e|-----12--14--12-------------12--14--12--------------12--14--12---------17-16-16-17-16-----|
B|--14------------14-14---14-------------12--14---14-------------14-14------------------14--|
G|------------------------------------------------------------------------------------------|
D|------------------------------------------------------------------------------------------|
A|------------------------------------------------------------------------------------------|
E|------------------------------------------------------------------------------------------|


e|-----12--14--12-------------12--14--12---------- 12--14--12---------17-16-16-17--16-----|
B|--14------------14-14---14-------------12-----14-------------14-14------------------14--|
G|-------------------------------------------14-------------------------------------------|
D|----------------------------------------------------------------------------------------|
A|----------------------------------------------------------------------------------------|
E|----------------------------------------------------------------------------------------|             
Submit corrections

↑ Back to top | Tablatures and chords for acoustic guitar and electric guitar, ukulele, drums are parodies/interpretations of the original songs. You may use it for private study, scholarship, research or language learning purposes only