» » »

Train - Drive By Tabs

Artists:  A B C D E F G H I J K L M N O P Q R S T U V W X Y Z # 

Drive By Tabs

(ver. 2) Click to play this song!
Train
 Rating:
4.1/5 (31 vote)

 Drive By lessons Tabs too difficult? Try these video lessons and learn fast
 
                 Intro
  Q=124
    C#m
 4/4
  Gtr I (Ac. Gtr.)
  E  E E  E E  E E  E   E  E E  E E  E E  E
|----9----9----9----9-|----9----9----9----9-||
|----9----9----9----9-|----9----9----9----9-||
|----9----9----9----9-|----9----9----9----9-||
|---11---11---11---11-|---11---11---11---11-||
|---------------------|---------------------||
|---------------------|---------------------||
|
| Gtr II (Ac. Gtr.)
| E  E E  E E  E E  E   E  E E  E E  E E  E
|----4----4----4----4-|----4----4----4----4-||
|----5----5----5----5-|----5----5----5----5-||
|----6----6----6----6-|----6----6----6----6-||
|----6----6----6----6-|----6----6----6----6-||
|----4----4----4----4-|----4----4----4----4-||
|---------------------|---------------------||


   1st & 2nd Verses
      C#m                   A
    E  E E  E E  E E  E   E  E E  E E  E E  E
||-----9----9----9----9-|----9----9----9----9-|
||o----9----9----9----9-|---10---10---10---10-|
||-----9----9----9----9-|----9----9----9----9-|
||----11---11---11---11-|---11---11---11---11-|
||o---------------------|---------------------|
||----------------------|---------------------|
|
|   E  E E  E E  E E  E   E  E E  E E  E E  E
||-----4----4----4----4-|---------------------|
||o----5----5----5----5-|----5----5----5----5-|
||-----6----6----6----6-|----6----6----6----6-|
||-----6----6----6----6-|----7----7----7----7-|
||o----4----4----4----4-|----7----7----7----7-|
||----------------------|----5----5----5----5-|


    E                 B
  E E E E E E E E   E  E E  E E  E E  E
|-----------------|---11---11---11---11-|
|---9---9---9---9-|---12---12---12---12-|
|---9---9---9---9-|---11---11---11---11-|
|---9---9---9---9-|---13---13---13---13-|
|-----------------|---------------------|
|-----------------|---------------------|
|
| E E E E E E E E   E  E E  E E  E E  E
|-----------------|---------------------|
|---9---9---9---9-|----7----7----7----7-|
|---9---9---9---9-|----8----8----8----8-|
|---9---9---9---9-|----9----9----9----9-|
|---7---7---7---7-|----9----9----9----9-|
|-----------------|----7----7----7----7-|


  C#m                   A
  E  E E  E E  E E  E   E  E E  E E  E E  E
|----9----9----9----9-|----9----9----9----9-|
|----9----9----9----9-|---10---10---10---10-|
|----9----9----9----9-|----9----9----9----9-|
|---11---11---11---11-|---11---11---11---11-|
|---------------------|---------------------|
|---------------------|---------------------|
|
| E  E E  E E  E E  E   E  E E  E E  E E  E
|----4----4----4----4-|---------------------|
|----5----5----5----5-|----5----5----5----5-|
|----6----6----6----6-|----6----6----6----6-|
|----6----6----6----6-|----7----7----7----7-|
|----4----4----4----4-|----7----7----7----7-|
|---------------------|----5----5----5----5-|


  E                 B
  E E E E E E E E   E  E E  E E  E E  E
|-----------------|---11---11---11---11--|
|---9---9---9---9-|---12---12---12---12--|
|---9---9---9---9-|---11---11---11---11--|
|---9---9---9---9-|---13---13---13---13--|
|-----------------|----------------------|
|-----------------|----------------------|
|
| E E E E E E E E   E  E E  E E  E E  E
|-----------------|----------------------|
|---9---9---9---9-|----7----7----7----7--|
|---9---9---9---9-|----8----8----8----8--|
|---9---9---9---9-|----9----9----9----9--|
|---7---7---7---7-|----9----9----9----9--|
|-----------------|----7----7----7----7--|


    F#m                   A
  E  E E  E E  E E  E   E  E E  E E  E E  E
|----9----9----9----9-|----9----9----9----9-|
|---10---10---10---10-|---10---10---10---10-|
|---11---11---11---11-|----9----9----9----9-|
|---11---11---11---11-|---11---11---11---11-|
|---------------------|---------------------|
|---------------------|---------------------|
|
| E  E E  E E  E E  E   E  E E  E E  E E  E
|----9----9----9----9-|---------------------|
|---10---10---10---10-|----5----5----5----5-|
|---11---11---11---11-|----6----6----6----6-|
|---11---11---11---11-|----7----7----7----7-|
|----9----9----9----9-|----7----7----7----7-|
|---------------------|----5----5----5----5-|


    C#m                   B
  E  E E  E E  E E  E   E  E E  E E  E E  E
|----9----9----9----9-|---11---11---11---11--|
|----9----9----9----9-|---12---12---12---12--|
|----9----9----9----9-|---11---11---11---11--|
|---11---11---11---11-|---13---13---13---13--|
|---------------------|----------------------|
|---------------------|----------------------|
|
| E  E E  E E  E E  E   E  E E  E E  E E  E
|----4----4----4----4-|----------------------|
|----5----5----5----5-|----4----4----4----4--|
|----6----6----6----6-|----4----4----4----4--|
|----6----6----6----6-|----4----4----4----4--|
|----4----4----4----4-|----2----2----2----2--|
|---------------------|----------------------|


    F#m                   A
  E  E E  E E  E E  E   E  E E  E E  E E  E
|----9----9----9----9-|----9----9----9----9-|
|---10---10---10---10-|---10---10---10---10-|
|---11---11---11---11-|----9----9----9----9-|
|---11---11---11---11-|---11---11---11---11-|
|---------------------|---------------------|
|---------------------|---------------------|
|
| E  E E  E E  E E  E   E  E E  E E  E E  E
|----9----9----9----9-|---------------------|
|---10---10---10---10-|----5----5----5----5-|
|---11---11---11---11-|----6----6----6----6-|
|---11---11---11---11-|----7----7----7----7-|
|----9----9----9----9-|----7----7----7----7-|
|---------------------|----5----5----5----5-|


    G#7sus4               G#7
  E  E E  E E  E E  E   E  E E  E E  E E  E
|---------------------|---11---11---11---11--||
|---14---14---14---14-|---13---13---13---13--||
|---11---11---11---11-|---11---11---11---11--||
|---13---13---13---13-|---13---13---13---13--||
|---11---11---11---11-|---11---11---11---11--||
|---------------------|----------------------||
|
| E  E E  E E  E E  E   E  E E  E E  E E  E
|---------------------|----------------------||
|----4----4----4----4-|----4----4----4----4--||
|----6----6----6----6-|----5----5----5----5--||
|----4----4----4----4-|----6----6----6----6--||
|----6----6----6----6-|----6----6----6----6--||
|----4----4----4----4-|----4----4----4----4--||


 Chorus
  $
  A                     E
  E  E E  E E  E E  E   E E E E E E E E
|----9----9----9----9-|-----------------|
|---10---10---10---10-|---9---9---9---9-|
|----9----9----9----9-|---9---9---9---9-|
|---11---11---11---11-|---9---9---9---9-|
|---------------------|-----------------|
|---------------------|-----------------|
|
| E  E E  E E  E E  E   E E E E E E E E
|---------------------|---0---0---0---0-|
|----2----2----2----2-|---0---0---0---0-|
|----2----2----2----2-|---4---4---4---4-|
|----2----2----2----2-|---2---2---2---2-|
|----0----0----0----0-|---2---2---2---2-|
|---------------------|---0---0---0---0-|
|
| Gtr III (El. Gtr. w/ light dist.)
| W                     W
|---------------------|-0---------------|
|-2-------------------|-0---------------|
|-2-------------------|-1---------------|
|-2-------------------|-2---------------|
|-0-------------------|-2---------------|
|---------------------|-0---------------|


  B
  E  E E  E E  E E  E   E  E E  E E  E E  E
|---11---11---11---11-|----9----9---11---11--|
|---12---12---12---12-|----9----9---12---12--|
|---11---11---11---11-|----9----9---11---11--|
|---13---13---13---13-|---11---11---13---13--|
|---------------------|----------------------|
|---------------------|----------------------|
|
| E  E E  E E  E E  E   E  E E  E E  E E  E
|---------------------|----4----4------------|
|----4----4----4----4-|----5----5----4----4--|
|----4----4----4----4-|----6----6----4----4--|
|----4----4----4----4-|----6----6----4----4--|
|----2----2----2----2-|----4----4----2----2--|
|---------------------|----------------------|
|
| W                     H         H
|---------------------|----------------------|
|-4-------------------|-5---------4----------|
|-4-------------------|-6---------4----------|
|-4-------------------|-6---------4----------|
|-2-------------------|-4---------2----------|
|---------------------|----------------------|


  A                     E
  E  E E  E E  E E  E   E E E E E E E E
|----9----9----9----9-|-----------------|
|---10---10---10---10-|---9---9---9---9-|
|----9----9----9----9-|---9---9---9---9-|
|---11---11---11---11-|---9---9---9---9-|
|---------------------|-----------------|
|---------------------|-----------------|
|
| E  E E  E E  E E  E   E E E E E E E E
|---------------------|---0---0---0---0-|
|----2----2----2----2-|---0---0---0---0-|
|----2----2----2----2-|---4---4---4---4-|
|----2----2----2----2-|---2---2---2---2-|
|----0----0----0----0-|---2---2---2---2-|
|---------------------|---0---0---0---0-|
|
| W                     W
|---------------------|-0---------------|
|-2-------------------|-0---------------|
|-2-------------------|-1---------------|
|-2-------------------|-2---------------|
|-0-------------------|-2---------------|
|---------------------|-0---------------|


  B                       G#7/B#
  E  E E  E E  E E  E   E  E E  E E  E E  E
|---11---11---11---11-|---11---11---11---11--|
|---12---12---12---12-|---13---13---13---13--|
|---11---11---11---11-|---11---11---11---11--|
|---13---13---13---13-|---13---13---13---13--|
|---------------------|----------------------|
|---------------------|----------------------|
|
| E  E E  E E  E E  E   E  E E  E E  E E  E
|---------------------|----------------------|
|----4----4----4----4-|----4----4----4----4--|
|----4----4----4----4-|----5----5----5----5--|
|----4----4----4----4-|----6----6----6----6--|
|----2----2----2----2-|----3----3----3----3--|
|---------------------|----------------------|
|
| W                     W
|---------------------|----------------------|
|-4-------------------|----------------------|
|-4-------------------|-5--------------------|
|-4-------------------|-6--------------------|
|-2-------------------|-3--------------------|
|---------------------|----------------------|


  A                     E
  E  E E  E E  E E  E   E E E E E E E E
|----9----9----9----9-|-----------------|
|---10---10---10---10-|---9---9---9---9-|
|----9----9----9----9-|---9---9---9---9-|
|---11---11---11---11-|---9---9---9---9-|
|---------------------|-----------------|
|---------------------|-----------------|
|
| E  E E  E E  E E  E   E E E E E E E E
|---------------------|---0---0---0---0-|
|----2----2----2----2-|---0---0---0---0-|
|----2----2----2----2-|---4---4---4---4-|
|----2----2----2----2-|---2---2---2---2-|
|----0----0----0----0-|---2---2---2---2-|
|---------------------|---0---0---0---0-|
|
| W                     W
|---------------------|-0---------------|
|-2-------------------|-0---------------|
|-2-------------------|-1---------------|
|-2-------------------|-2---------------|
|-0-------------------|-2---------------|
|---------------------|-0---------------|


  B                     C#m       B
  E  E E  E E  E E  E   E  E E  E E  E E  E
|---11---11---11---11-|----9----9---11---11--|
|---12---12---12---12-|----9----9---12---12--|
|---11---11---11---11-|----9----9---11---11--|
|---13---13---13---13-|---11---11---13---13--|
|---------------------|----------------------|
|---------------------|----------------------|
|
| E  E E  E E  E E  E   E  E E  E E  E E  E
|---------------------|----4----4------------|
|----4----4----4----4-|----5----5----4----4--|
|----4----4----4----4-|----6----6----4----4--|
|----4----4----4----4-|----6----6----4----4--|
|----2----2----2----2-|----4----4----2----2--|
|---------------------|----------------------|
|
| W                     H         H
|---------------------|----------------------|
|-4-------------------|-5---------4----------|
|-4-------------------|-6---------4----------|
|-4-------------------|-6---------4----------|
|-2-------------------|-4---------2----------|
|---------------------|----------------------|


  A                     E
  E  E E  E E  E E  E   E E E E E E E E
|----9----9----9----9-|-----------------|
|---10---10---10---10-|---9---9---9---9-|
|----9----9----9----9-|---9---9---9---9-|
|---11---11---11---11-|---9---9---9---9-|
|---------------------|-----------------|
|---------------------|-----------------|
|
| E  E E  E E  E E  E   E E E E E E E E
|---------------------|---0---0---0---0-|
|----2----2----2----2-|---0---0---0---0-|
|----2----2----2----2-|---4---4---4---4-|
|----2----2----2----2-|---2---2---2---2-|
|----0----0----0----0-|---2---2---2---2-|
|---------------------|---0---0---0---0-|
|
| W                     W
|---------------------|-0---------------|
|-2-------------------|-0---------------|
|-2-------------------|-1---------------|
|-2-------------------|-2---------------|
|-0-------------------|-2---------------|
|---------------------|-0---------------|


                                     To Coda
    F#m                   G#7
  E  E E  E E  E E  E   E  E E  E E  E E  E
|----9----9----9----9-|---11---11---11---11--|
|---10---10---10---10-|---13---13---13---13--|
|---11---11---11---11-|---11---11---11---11--|
|---11---11---11---11-|---13---13---13---13--|
|----9----9----9----9-|---11---11---11---11--|
|---------------------|----------------------|
|
| E  E E  E E  E E  E   E  E E  E E  E E  E
|---------------------|----------------------|
|----2----2----2----2-|----4----4----4----4--|
|----2----2----2----2-|----5----5----5----5--|
|----4----4----4----4-|----6----6----6----6--|
|----4----4----4----4-|----6----6----6----6--|
|----2----2----2----2-|----4----4----4----4--|
|
|                       PM---------------|
| W                     E  E E  E E  E E  E
|-2-------------------|----------------------|
|-2-------------------|----------------------|
|-2-------------------|----------------------|
|-4-------------------|----------------------|
|-4-------------------|-6--6-6--6-6--6-6--6--|
|-2-------------------|-4--4-4--4-4--4-4--4--|


                       Bridge
  1.                   2.
    C#m                 G#m7
                        Gtr IV
  E  E E  E E  E Q      E E E E +H
|----9----9----9-----||-------7-(7)----|
|----9----9----9----o||-----7----------|
|----9----9----9-----||---8------------|
|---11---11---11-----||-6--------------|
|-------------------o||----------------|
|--------------------||----------------|
|
| E  E E  E E  E Q      W
|----4----4----4-----||----------------|
|----5----5----5----o||----------------|
|----6----6----6-----||----------------|
|----6----6----6-----||----------------|
|----4----4----4----o||----------------|
|--------------------||----------------|


  C#m              F#m                  B    A
  E E E E +H       E  E  E  E  +H       H    H
|-------4-(4)----|----------9--(9)----|-----------|
|-------5-(5)----|---------10-(10)----|-----------|
|-----6----------|------11------------|-----------|
|---6------------|---11---------------|-9----7----|
|-4--------------|-9------------------|-----------|
|----------------|--------------------|-7----5----|
|
| W                W                    W
|----------------|--------------------|-----------|
|----------------|--------------------|-----------|
|----------------|--------------------|-----------|
|----------------|--------------------|-----------|
|----------------|--------------------|-----------|
|----------------|--------------------|-----------|


  G#               F#m              B5
                                  Gtr III
                                                      <
                                    PM------------------------------|
  E E E E +H       E E E E +H       E E E E E E E E   E E E E E E E E
|----------------|----------------|-----------------|------------------||
|----------------|----------------|-----------------|------------------||
|-------5-(5)----|-------2-(2)----|-----------------|-4-4-4-4-4-4-4-4--||
|-----6----------|-----4----------|-4-4-4-4-4-4-4-4-|-4-4-4-4-4-4-4-4--||
|---6------------|---4------------|-2-2-2-2-2-2-2-2-|-2-2-2-2-2-2-2-2--||
|-4--------------|-2--------------|-----------------|------------------||


 3rd Verse
    C#m                   A                     E
  Gtr I
  E  E E  E E  E E  E   E  E E  E E  E E  E   E E E E E E E E
|----9----9----9----9-|----9----9----9----9-|-----------------|
|----9----9----9----9-|---10---10---10---10-|---9---9---9---9-|
|----9----9----9----9-|----9----9----9----9-|---9---9---9---9-|
|---11---11---11---11-|---11---11---11---11-|---9---9---9---9-|
|---------------------|---------------------|-----------------|
|---------------------|---------------------|-----------------|
|
| Gtr II
| E  E E  E E  E E  E   E  E E  E E  E E  E   E E E E E E E E
|----4----4----4----4-|---------------------|-----------------|
|----5----5----5----5-|----5----5----5----5-|---9---9---9---9-|
|----6----6----6----6-|----6----6----6----6-|---9---9---9---9-|
|----6----6----6----6-|----7----7----7----7-|---9---9---9---9-|
|----4----4----4----4-|----7----7----7----7-|---7---7---7---7-|
|---------------------|----5----5----5----5-|-----------------|


          D.S. al Coda &
    B                     Aadd9
                          Gtr I
  E  E E  E E  E E  E     W          +W           +W
|---11---11---11---11--||-0--------|-(0)--------|-(0)----*|
|---12---12---12---12--||-0--------|-(0)--------|-(0)----*|
|---11---11---11---11--||-6--------|-(6)--------|-(6)----*|
|---13---13---13---13--||-7--------|-(7)--------|-(7)----*|
|----------------------||-7--------|-(7)--------|-(7)----*|
|----------------------||-5--------|-(5)--------|-(5)----*|
|
|                         Gtrs III, IV (Piano arr. for Gtr.)
| E  E E  E E  E E  E     W          +W           +W
|----7----7----7----7--||-0--------|-(0)--------|-(0)----*|
|----7----7----7----7--||-0--------|-(0)--------|-(0)----*|
|----8----8----8----8--||-6--------|-(6)--------|-(6)----*|
|----9----9----9----9--||-7--------|-(7)--------|-(7)----*|
|----9----9----9----9--||-7--------|-(7)--------|-(7)----*|
|----7----7----7----7--||-5--------|-(5)--------|-(5)----*|
            
Submit corrections


        Drive By lessons Hard to play? Try these video lessons and learn fast Drive By lessons
        
↑ Back to top | Tablatures and chords for acoustic guitar and electric guitar, ukulele, drums are parodies/interpretations of the original songs. You may use it for private study, scholarship, research or language learning purposes only