» » »

Train - Shake Up Christmas Bass

Artists:  A B C D E F G H I J K L M N O P Q R S T U V W X Y Z # 

Shake Up Christmas Bass

(ver. 1) Click to play this song!
Train
 Rating:
4.6/5 (21 vote)

 Shake Up Christmas lessons Tabs too difficult? Try these video lessons and learn fast
 
                Intro (No Bass)

Vers 1
G|------------------|----------9-9-----|------------------|----------9-9-----|
D|------------------|---10--10-----10\-|------------------|---10--10-----10\-|
A|------------------|------------------|------------------|------------------|
E|-8------8-8-------|------------------|-1010101010-------|------------------|

G|------------------|----------9-9-----|------------------|------------------|
D|------------------|---10--10-----10\-|------------------|-10\-----10\------|
A|-8------8-8-------|------------------|------------------|------------------|
E|------------------|------------------|-8------8-8-------|------------------|

G|------------------|----------9-9-----|------------------|----------9-9-----|
D|------------------|---10--10-----10\-|------------------|---10--10-----10\-|
A|------------------|------------------|------------------|------------------|
E|-8------8-8-------|------------------|-1010101010-------|------------------|

G|------------------|----------9-9-----|------------------|------------------|
D|------------------|---10--10-----10\-|------------------|------------------|
A|-8------8-8-------|------------------|------------------|------------------|
E|------------------|------------------|-8------8-8-------|-(8)\-------------|

Chorus
G|------------------|----------9-9-----|------------------|----------9-9-----|
D|------------------|---10--10-----10\-|------------------|---10--10-----10\-|
A|------------------|------------------|------------------|------------------|
E|-8------8-8-----8-|------------------|-1010101010----10-|------------------|

G|------------------|----------9-9-----|------------------|------------------|
D|------------------|---10--10-----10\-|------------------|------------------|
A|-8------8-8-----8-|------------------|------------------|------------------|
E|------------------|------------------|-8------8-8\\\----|------------------|

G|------------------|----------9-9-----|------------------|----------9-9-----|
D|------------------|---10--10-----10\-|------------------|---10--10-----10\-|
A|------------------|------------------|------------------|------------------|
E|-8------8-8-----8-|------------------|-1010101010----10-|------------------|

G|------------------|----------9-9-----|------------------|------------------|
D|------------------|---10--10-----10\-|------------------|------------------|
A|-8------8-8-----8-|------------------|------------------|------------------|
E|------------------|------------------|-8----------------|-(8)--------------|

G|------------------|------------------|------------------|------------------|
D|------------------|------------------|------------------|------------------|
A|------------------|------------------|-8-8-8-8-8------8-|---8----8-8-8-8---|
E|-1010101010----10-|---10---10101010--|------------------|------------------|

G|------------------|----------9-9-----|
D|------------------|---10--10-----10\-|
A|------------------|------------------|
E|-8------8-8-----8-|------------------|

Vers 2
G|------------------|----------9-9-----|------------------|----------9-9-----|
D|------------------|---10--10-----10\-|------------------|---10--10-----10\-|
A|------------------|------------------|------------------|------------------|
E|-8------8-8-------|------------------|-1010101010-------|------------------|

G|------------------|----------9-9-----|------------------|------------------|
D|------------------|---10--10-----10\-|------------------|-10\----10\-------|
A|-8------8-8-------|------------------|------------------|------------------|
E|------------------|------------------|-8------8-8-------|------------------|

G|------------------|----------9-9-----|------------------|----------9-9-----|
D|------------------|---10--10-----10\-|------------------|---10--10-----10\-|
A|------------------|------------------|------------------|------------------|
E|-8------8-8-------|------------------|-1010101010-------|------------------|

G|------------------|----------9-9-----|------------------|------------------|
D|------------------|---10--10-----10\-|------------------|--12-12\10-10-----|
A|-8------8-8-------|------------------|------------------|-------------10-7-|
E|------------------|------------------|-8------8-8---(8)-|------------------|

Vers 3
G|------------------|----------9-9-----|------------------|----------9-9-----|
D|------------------|---10--10-----10\-|------------------|---10--10-----10\-|
A|------------------|------------------|------------------|------------------|
E|-8------8-8-------|------------------|-1010101010-------|------------------|

G|------------------|----------9-9-----|------------------|------------------|
D|------------------|---10--10-----10\-|------------------|-10\----10\-------|
A|-8------8-8-------|------------------|------------------|------------------|
E|------------------|------------------|-8------8-8-------|------------------|

G|------------------|----------9-9-----|------------------|----------9-9-----|
D|------------------|---10--10-----10\-|------------------|---10--10-----10\-|
A|------------------|------------------|------------------|------------------|
E|-8------8-8-------|------------------|-1010101010-------|------------------|

G|------------------|----------9-9-----|------------------|------------------|
D|------------------|---10--10-----10\-|------------------|------------------|
A|-8------8-8-------|------------------|------------------|-----101010101010-|
E|------------------|------------------|-8------8-8-------|------------------|

Chorus
G|------------------|----------9-9-----|------------------|----------9-9-----|
D|------------------|---10--10-----10\-|------------------|---10--10-----10\-|
A|------------------|------------------|------------------|------------------|
E|-8------8-8-----8-|------------------|-1010101010----10-|------------------|

G|------------------|----------9-9-----|------------------|----------9-9-----|
D|------------------|---10--10-----10\-|------------------|---10--10-----10\-|
A|-8------8-8-----8-|------------------|------------------|------------------|
E|------------------|------------------|-8------8-8-----8-|------------------|

G|------------------|----------9-9-----|------------------|----------9-9-----|
D|------------------|---10--10-----10\-|------------------|---10--10-----10\-|
A|------------------|------------------|------------------|------------------|
E|-8------8-8-----8-|------------------|-1010101010----10-|------------------|

G|------------------|----------9-9-----|------------------|------------------|
D|------------------|---10--10-----10\-|------------------|-141412121010-----|
A|-8------8-8-----8-|------------------|------------------|-------------10\--|
E|------------------|------------------|-8------8-8-----8-|------------------|

Bridge
G|------------------|------------------|------------------|------------------|
D|------------------|------------------|------------------|------------------|
A|-rest 8 bars------|------------------|------------------|------------------|
E|------------------|------------------|------------------|------------------|

G|------------------|------------------|------------------|------------------|
D|------------------|------------------|------------------|------------------|
A|------------------|------------------|------------------|------------------|
E|------------------|------------------|------------------|------------------|

G|------------------|------------------|------------------|------------------|
D|------------------|------------------|------------------|------------------|
A|------------------|------------------|------------------|------------------|
E|-8----------------|-(8)--------------|-(10)-------------|-(10)-------------|

G|------------------|------------------|------------------|------------------|
D|------------------|------------------|------------------|------------------|
A|-10---------------|-(10)-----------\-|------------------|------------------|
E|------------------|------------------|------------------|------------------|

Final Chorus
G|------------------|----------9-9-----|------------------|----------9-9-----|
D|------------------|---10--10-----10\-|------------------|---10--10-----10\-|
A|------------------|------------------|------------------|------------------|
E|-8------8-8-----8-|------------------|-1010101010----10-|------------------|

G|------------------|----------9-9-----|------------------|------------------|
D|------------------|---10--10-----10\-|------------------|------------------|
A|-8------8-8-----8-|------------------|------------------|------------------|
E|------------------|------------------|-8------8-8-----8-|---8---8-8-8-8\---|

G|------------------|----------9-9-----|------------------|----------9-9-----|
D|------------------|---10--10-----10\-|------------------|---10--10-----10\-|
A|------------------|------------------|------------------|------------------|
E|-8------8-8-----8-|------------------|-1010101010----10-|------------------|

G|------------------|----------9-9-----|------------------|------------------|
D|------------------|---10--10-----10\-|------------------|------------------|
A|-8------8-8-----8-|------------------|------------------|------------------|
E|------------------|------------------|-8----------------|(8)/(15)\(8)/(15)\|

G|------------------|------------------|------------------|------------------|
D|------------------|------------------|------------------|------------------|
A|------------------|------------------|-8-8-8-8-8------8-|---8----8-8-8-8---|
E|-1010101010----10-|---10---10101010--|------------------|------------------|

G|------------------|----------9-9-----|
D|------------------|---10--10-----10\-|
A|------------------|------------------|
E|-8------8-8-----8-|------------------|

G|------------------|----------9-9-----|------------------|----------9-9-----|
D|------------------|---10--10-----10\-|------------------|---10--10-----10\-|
A|------------------|------------------|------------------|------------------|
E|-8------8-8-----8-|------------------|-1010101010----10-|------------------|

G|------------------|------------------|------------------|----------9-9-----|
D|------------------|---------14-14----|------------------|---10--10-----10\-|
A|-8------8-8-----8/|--(15)-15------15\|------------------|------------------|
E|------------------|------------------|-8------8-8-----8-|------------------|

G|------------------|----------9-9-----|------------------|----------9-9-----|
D|------------------|---10--10-----10\-|------------------|---10--10-----10\-|
A|------------------|------------------|------------------|------------------|
E|-8------8-8-----8-|------------------|-1010101010----10-|------------------|

G|------------------|------------------|------------------|------------------|
D|------------------|---------14-14----|------------------|------------------|
A|-8------8-8-----8/|--(15)-15------15\|------------------|---15----15-15----|
E|------------------|------------------|-8------8-8-------|-13----13-----13\-|            
Submit corrections


        Shake Up Christmas lessons Hard to play? Try these video lessons and learn fast Shake Up Christmas lessons
        
↑ Back to top | Tablatures and chords for acoustic guitar and electric guitar, ukulele, drums are parodies/interpretations of the original songs. You may use it for private study, scholarship, research or language learning purposes only