» » »

Train - Meet Virginia Bass

Artists:  A B C D E F G H I J K L M N O P Q R S T U V W X Y Z # 

Meet Virginia Bass

(ver. 1) Click to play this song!
Train
 Rating:
4/5 (4 votes)

 Meet Virginia lessons Tabs too difficult? Try these video lessons and learn fast
 
                Train - Meet Virginia

Standard tuning (EADG)


I have updated the Meet Virginia tab as the original was, I think, based on a
live version rather than the studio version, which is quite different. Some
parts of this tab are thanks to the original by GOUGEMAN, the rest was my own
work.

She doesn't own a dress..
G|----------------------------------------------------------------------------|
D|---------12-10--12--------------12-12-12-10--------12-10--9--7--5--4--------|
A|-10-----------------10h12------12-------------10----------------------------|
E|----------------------------------------------------------------------------|


She smokes a pack a day...
G|----------------------------------------------------------------------------|
D|---------12-10--12--------------12-12-12h14--------12-10--9--7--5--4--------|
A|-10-----------------10h12------12-------------10----------------------------|
E|----------------------------------------------------------------------------|


Meet Virginia..
G|----------------------------------------------------------------------------|
D|----------------------------------------------------------------------------|
A|-10------/15------12------/17------10------/15------12------\9--------------|
E|----------------------------------------------------------------------------|


She never compromises...
G|----------------------------------------------------------------------------|
D|---------12-10--12--------------12-12-12-10--------12-10--9--7--/14-p12-----|
A|-10-----------------10h12------12-------------10----------------------------|
E|----------------------------------------------------------------------------|


Meet Virginia..
G|----------------------------------------------------------------------------|
D|----------------------------------------------------------------------------|
A|-10------/15------12------\9------------------------------------------------|
E|----------------------------------------------------------------------------|


When she wants to be the Queen...
G|----------------------------------------------------------------------------|
D|----------------------------------------------------------------------------|
A|--------0-2------5------5-3-5--3--2-----------------------------------------|
E|-3-----------------------------------3--------------------------------------|


Holds her head back and she screams...
G|----------------------------------------------------------------------------|
D|----------------------------------------------------------------------------|
A|--------0-2------5------5-3-5--2--------------------------------------------|
E|-3--------------------------------3-----------------------------------------|


Daddy wrestles alligators..
G|----------------------------------------------------------------------------|
D|---------12-10--12--------------12-12-12-10--------12-10--9--7--5--4/14-p12-|
A|-10-----------------10h12------12-------------10----------------------------|
E|----------------------------------------------------------------------------|


Here she is again...
G|----------------------------------------------------------------------------|
D|------12-12-10--12--------------12-12-12h14--------12-10--9--7--5--4--------|
A|-10-----------------10h12------12-------------10----------------------------|
E|----------------------------------------------------------------------------|


Meet Virginia..
G|----------------------------------------------------------------------------|
D|----------------------------------------------------------------------------|
A|-10------/15------12------\9------------------------------------------------|
E|----------------------------------------------------------------------------|


When she wants to live her life...
G|----------------------------------------------------------------------------|
D|----------------------------------------------------------------------------|
A|--------0-2------5------5-3-5--3--2-----------------------------------------|
E|-3-----------------------------------3--------------------------------------|


Holds her head back as she screams...
G|----------------------------------------------------------------------------|
D|----------------------------------------------------------------------------|
A|--------0-2------5------5-3-5--2--------------------------------------------|
E|-3--------------------------------3-----------------------------------------|


(Improvise around D2/3 and A3/5 throughout middle eight)




G|----------------------------------------------------------------------------|
D|------12-10-10--12--------------12-12-12-10--------12-10--9--7--5--4/14-p12-|
A|-10-----------------10h12------12-------------10----------------------------|
E|----------------------------------------------------------------------------|


She only drinks coffee at midnight..
G|--------------------------------------------------------------12-12-b14-----|
D|------12-12-10--12--------------12-12-12h14--------12-10--12----------------|
A|-10-----------------10h12------12-------------10----------------------------|
E|----------------------------------------------------------------------------|


You see her confidence is tragic...
G|----------------------------------------------------------------------------|
D|------12-12-10--12--------------12-12-12h14--------12-10--9--7--5--4--------|
A|-10-----------------10h12------12-------------10----------------------------|
E|----------------------------------------------------------------------------|


(Rest two bars)


When she wants to be the Queen...
G|----------------------------------------------------------------------------|
D|----------------------------------------------------------------------------|
A|--------0-2------5------5-3-5--3--2-----------------------------------------|
E|-3-----------------------------------3--------------------------------------|


When she wants to live her lies...
G|----------------------------------------------------------------------------|
D|----------------------------------------------------------------------------|
A|--------0-2------5------5-3-5--3--2-----------------------------------------|
E|-3-----------------------------------3--------------------------------------|


Holds her head back and she screams...
G|----------------------------------------------------------------------------|
D|----------------------------------------------------------------------------|
A|--------0-2------5------5-3-5---2-------------------------------------------|
E|-3---------------------------------3----------------------------------------|



I don't really want to be the Queen...
G|----------------------------------------------------------------------------|
D|-------------9------------------------------------------------------------o-|
A|-10-10-10-10---10-10-10-9-9-9-9-10-10-10-10-------------------------------o-|
E|----------------------------------------------------------------------------|

G|----------------------------------------------------------------------------|
D|-------------9------------------------------------------------------------o-|
A|-10-10-10-10---10-10-10-9-9-9-9-------------------------------------------o-|
E|--------------------------------3-------------------------------------------|
            
Submit corrections


        Meet Virginia lessons Hard to play? Try these video lessons and learn fast Meet Virginia lessons
        
↑ Back to top | Tablatures and chords for acoustic guitar and electric guitar, ukulele, drums are parodies/interpretations of the original songs. You may use it for private study, scholarship, research or language learning purposes only