Home » T » Train »

Train - Hey Soul Sister Bass

Artists:  A B C D E F G H I J K L M N O P Q R S T U V W X Y Z # 

Hey Soul Sister Bass

(ver. 1) Click to play this song!
Train
 Rating:
4/5 (4 votes)
                [INTRO] (Muted ukulele strumming first half measure)
  -    E        B                C#m               A
            Hey-ay, Hey-ay-AY-ay-ay,  Hey-ay-AY-ay-ay

  -    E        B        C#m      A         
G:----|--------|--------|--------|--------|
D:----|--------|--------|--------|--------|
A:----|--------|--------|--------|--------|
E:----|--------|--------|--------|--------|

[VERSE]
       E               B                         C#m              A
  Your lipstick stains   on the front lobe of my left side brains
                        E                         B               C#m  A B
  I knew I wouldn't for-get you and so I went and let you blow my mind

  E        B        C#m      A        E        B        C#m      A   B     
G:--------|--------|--------|--------|--------|--------|--------|--------|
D:--------|--------|--------|--------|--------|--------|--------|--------|
A:--------|--------|--------|--------|--------|--------|--------|--------|
E:--------|--------|--------|--------|--------|--------|--------|--------|
       E              B                           C#m            A
  Your sweet moonbeam   the smell of you in every single dream I dream
                     E                              B                     C#m A B 
  I knew when we col-lided you're the one I have de-cided who's one of my kind

  E        B        C#m      A        E        B        C#m      A   B     
G:--------|--------|--------|--------|--------|--------|--------|--------|
D:--------|--------|--------|--------|--------|--------|--------|--------|
A:--------|--------|--------|--------|--------|--------|--------|--------|
E:--------|--------|--------|--------|--------|--------|--------|--------|

[CHORUS]
  A               B                 E      B      A
  Hey soul sister ain't that Mister Mister on the radio stereo
      B                 E        B
  The way you move aint fair you know
  A               B               E      B      A            B
  Hey soul sister I don't want to miss a single thing you do
     E         B                C#m              A
  To-night Hey-ay, Hey-ay-AY-ay-ay, Hey-ay-AY-ay-ay

  A        B   E B  A        B   E B  A        B   E B  A        B        E B C#m A
G:--------|--------|--------|--------|--------|--------|--------|--------|-|-|---|-|
D:--------|--------|--------|--------|--------|--------|--------|--------|-|-|---|-|
A:--------|--------|--------|--------|--------|--------|--------|--------|-|-|---|-|
E:--------|--------|--------|--------|--------|--------|--------|--------|-|-|---|-|

[VERSE]
  E              B                          C#m                 A
  Just in ti-i-i-ime I'm so glad you have a one track mind like me
                       E                           B                  C#m  A B
  You gave my love dir-ection a game show love con-nection we can't deny-i-iii

  E        B        C#m      A        E        B        C#m      A   B     
G:--------|--------|--------|--------|--------|--------|--------|--------|
D:--------|--------|--------|--------|--------|--------|--------|--------|
A:--------|--------|--------|--------|--------|--------|--------|--------|
E:--------|--------|--------|--------|--------|--------|--------|--------|
      E           B                                 C#m                A
  I'm so obsessed   my heart is bound to beat right outta my untrimmed chest
               E                           B                          C#m
  I believe in you like a virgin you're Ma-donna and I'm always gonna wanna 
            A    B
  blow your mind
  E        B        C#m      A        E        B        C#m      A   B     
G:--------|--------|--------|--------|--------|--------|--------|--------|
D:--------|--------|--------|--------|--------|--------|--------|--------|
A:--------|--------|--------|--------|--------|--------|--------|------E\\
E:--------|--------|--------|--------|--------|--------|--------|--------|
[CHORUS]
  A               B                 E      B      A
  Hey soul sister ain't that Mister Mister on the radio stereo
      B                 E        B
  The way you move aint fair you know
  A               B               E      B      A            B
  Hey soul sister I don't want to miss a single thing you do

  A        B   E B  A        B   E B  A        B   E B  A        B   
G:--------|--------|--------|--------|--------|--------|--------|--------|
D:--------|--------|--------|--------|--------|--------|--------|--------|
A:--------|----7---|--------|----7---|--------|----7---|--------|----6---|
E:5-------|7-----7-|5-------|7-----7-|5-------|7-----7-|5-------|7-9---7-|

[BRIDGE]
     E                                 B                              C#m
  To-night The way you can cut a rug   Watching you's the only drug I need
                                                  C#m                          B
 (You're) so gangster I'm so thug      You're the only one I'm dreaming of you see
                            B                                          C#m
  I can be myself now final-ly         In fact there's nothing I can't be
             B                A        B
  I want the world to see you be with  me

  E        B        C#m      C#m      B        B        C#m B    A   B     
G:--------|--------|--------|--------|--------|--------|--------|--------|
D:--------|--------|--------|--------|--------|--------|--------|--------|
A:7---7---|--------|--------|--------|--------|--------|--------|--------|
E:--------|7-7-7-7-|9---9---|9---9---|7---7-7-|7---7-57|9---7---|5---7---|

[CHORUS]
  A               B                 E      B      A
  Hey soul sister ain't that Mister Mister on the radio stereo
      B                 E        B
  The way you move aint fair you know
  A               B               E      B      A               B
  Hey soul sister I don't want to miss a single thing you do to-night

  A        B   E B  A        B   E B  A        B   E B  A        B   
G:--------|--------|--------|--------|--------|--------|--------|--------|
D:--------|--------|--------|--------|--------|--------|--------|--------|
A:--------|--------|--------|----7---|--------|----7---|--------|----6---|
E:--------|--------|--------|------7-|5---5---|7-----7-|5---5---|7-9---7-|

[CODA]
  A               B               E      B      A               B 
  Hey soul sister I don't want to miss a single thing you do-oo-oo
     E         B                C#m              A  B 
  To-night Hey-ay, Hey-ay-AY-ay-ay, Hey-ay-AY-ay-ay 
     E         B                C#m              A  B
  To-night Hey-ay, Hey-ay-AY-ay-ay, Hey-ay-AY-ay-ay 
      E
  Ton-ight

  A        B   E B  A        B        
G:--------|--------|--------|--------|
D:--------|--------|--------|--------|
A:--------|----7---|--------|----6---|
E:5-------|7-----7-|5-------|7-9---7-|

  E        B        C#m      A   B    E        B        C#m      A   N/C  E    
G:--------|--------|--------|--------|--------|--------|--------|--------|--------|
D:--------|--------|--------|--------|--------|--------|--------|--------|--------|
A:7-------|--------|--------|--------|7-------|--------|--------|--------|--------|
E:--------|7---7-7-|9---9---|5---7---|--------|7---7-7-|9---9---|5---7---|--------|
            
Submit corrections

↑ Back to top | Tablatures and chords for acoustic guitar and electric guitar, ukulele, drums are parodies/interpretations of the original songs. You may use it for private study, scholarship, research or language learning purposes only