» » »

Train - Drive By Tabs

Artists:  A B C D E F G H I J K L M N O P Q R S T U V W X Y Z # 

Drive By Tabs

(ver. 1) Click to play this song!
Train
 Rating:
4/5 (4 votes)

 Drive By lessons Tabs too difficult? Try these video lessons and learn fast
 
                

Standard Tuning

------|-----|--|--------------------------------------------------------------|
------|-----|--|--------------------------------------------------------------|
------|-13--|--|--------------------------------------------------------------|
------|-11--|4x|--------------------------------------------------------------|
------|-11--|--|--------------------------------------------------------------|
------|-----|--|--------------------------------------------------------------|
       Intro Pluck

------|-----|--|-----|--|----|--|-----|--|------------------------------------|
------|-----|--|-----|--|----|--|-----|--|------------------------------------|
------|-13--|--|-14--|--|-9--|--|-16--|--|------------------------------------|
------|-11--|4x|-11--|4x|-6--|4x|-13--|4x|------------------------------------|
------|-11--|--|-12--|--|-7--|--|-14--|--|------------------------------------|
------|-----|--|-----|--|----|--|-----|--|------------------------------------|
       Verse Pluck

------|-----|--|-----|--|-----|--|-----|--|-----------------------------------|
------|-----|--|-----|--|-----|--|-----|--|-----------------------------------|
------|-13--|--|-14--|--|-13--|--|-13--|--|-----------------------------------|
------|-11--|4x|-11--|4x|-11--|4x|-10--|4x|-----------------------------------|
------|-11--|--|-12--|--|-11--|--|-11--|--|-----------------------------------|
------|-----|--|-----|--|-----|--|-----|--|-----------------------------------|
       Verse End Pluck

------|-----|--|----|--|-----|--|-----|--|------------------------------------|
------|-----|--|----|--|-----|--|-----|--|------------------------------------|
------|-14--|--|-9--|--|-16--|--|-13--|--|------------------------------------|
------|-11--|4x|-6--|4x|-13--|4x|-11--|4x|------------------------------------|
------|-12--|--|-7--|--|-14--|--|-11--|--|------------------------------------|
------|-----|--|----|--|-----|--|-----|--|------------------------------------|
       Chorus Pluck

------|-x----x----x---------x----x-----------|--------------------------------|
------|-9----9----10--------9----10----------|--------------------------------|
------|-8----9----9----11---8----9----11-----|--------------------------------|
------|-9----11---11---13---10---11---13-----|--------------------------------|
------|-11---11---12---14---11---12---14-----|--------------------------------|
------|-x----x----x----x----x----x----x------|--------------------------------|
       Bridge Chords Arpeggio
            
Submit corrections


        Drive By lessons Hard to play? Try these video lessons and learn fast Drive By lessons
        
↑ Back to top | Tablatures and chords for acoustic guitar and electric guitar, ukulele, drums are parodies/interpretations of the original songs. You may use it for private study, scholarship, research or language learning purposes only