Home » T » Tragically Hip »

Tragically Hip - New Orleans Is Sinking Tabs

Artists:  A B C D E F G H I J K L M N O P Q R S T U V W X Y Z # 

New Orleans Is Sinking Tabs

(ver. 1) Click to play this song!
Tragically Hip
 Rating:
4/5 (4 votes)
                
Tuning: Standard (E>B>G>D>A>E)

Rhythm Guitar:
E  ---------------------------------------------------------
B  ---------------------------------------------------------
G  ---------------------------------------------------------   repeat a lot
D  --2--2------0-0h2--2-2--2-----------0-0h2---------
A  --2-------2----------2-2------------2-----------------
E   --0----3-------------0-0---------3--------------------

Lead Guitar:

E  ---------------------------------------------------------------------0----/6--3-
B  --3p0-0-5--3p0------------------------------------------0-0-0--0-----------
G  --------------------0-2p0-2p0--------3p0-2p0-2p0--2/4-------------------
D  ---------------------------------0h2-------------------------------------------
A  ---------------------------------------------------------------------------------
E  ---------------------------------------------------------------------------------

Sorry this is all I had time for so ill need some help as soon as possible!!!
This should get you started but you better be good at hammering on!!!!!
Please send in different versions of this song!!!!!!!!!!!!!!!!!!!!!!!!!!!!!!!!
            
Submit corrections

↑ Back to top | Tablatures and chords for acoustic guitar and electric guitar, ukulele, drums are parodies/interpretations of the original songs. You may use it for private study, scholarship, research or language learning purposes only