» » »

Tragically Hip - Little Bones Tabs

Artists:  A B C D E F G H I J K L M N O P Q R S T U V W X Y Z # 

Little Bones Tabs

(ver. 1) Click to play this song!
Tragically Hip
 Rating:
4/5 (4 votes)

 Little Bones lessons Tabs too difficult? Try these video lessons and learn fast
 
                intro
                         -----------------------------------------
                         -----------------------------------------
                         -----------------------------------------
                         -----------4--------4------2---2----2------2----2----1--1--
                         ---------4---4---4----4------4----4---4--2----2---2---2---2
                         ---0h2--------------------------------------

                               reapet 2 times then

                         ------------------------------------------------
                         ------------------------------------------------
                         ---------------------2--4-4-4--------------4 2 4-
                         ---------4--4--4-----0--2-2-2----2 h 4------------  x 2
                         --2------2--2--2-----0--2-2-2---------------------
                         --0------2--2--2-----------------------------------
                        ___________________
                            play twice


                         -------0---0--------------------------------------------
                         -33------3---3--------------------------------------------
                         -22-------------3322---------------------------------------
                         ----------------------4422--------------4----4-------------
                         ---------------------------------2h4------2--------------
                         ------------------------------------------------------
            
Submit corrections


        Little Bones lessons Hard to play? Try these video lessons and learn fast Little Bones lessons
        
↑ Back to top | Tablatures and chords for acoustic guitar and electric guitar, ukulele, drums are parodies/interpretations of the original songs. You may use it for private study, scholarship, research or language learning purposes only