» » »

Tragically Hip - Bobcaygeon Bass

Artists:  A B C D E F G H I J K L M N O P Q R S T U V W X Y Z # 

Bobcaygeon Bass

(ver. 1) Click to play this song!
Tragically Hip
 Rating:
4/5 (7 votes)

 Bobcaygeon lessons Tabs too difficult? Try these video lessons and learn fast
 
                		      BOBCAYGEON - The Tragically Hip


Tuning: Standard


Intro:
G|--------------------------------------------------------------------------|
D|-------17----17--------------17-------------------------------------------|
A|-17-19----19-------17-17-19-----------------------------------------------|
E|--------------------------------------------------------------------------|

Verse:
G|--------------------------------------------------------------------------|
D|-----5---5-----5-5-5-7----------------------------------------------------|
A|-5-7---5---------------5-5---5-5-5-5--------------------------------------|
E|--------------------------------------------------------------------------|


Pre Chorus:
G|--------------------------------------------------------------------------|
D|--------------------------------------------------------------------------|
A|-2-2-2-2-2-2-2-2-3-3-3-3-3-3-3-3------------------------------------------|
E|---------------------------------3-3-3-3-3-3-3-3-5-5-5-5-5-5-5-5----------|

Chorus:
G|--------------------------------------------------------------------------|
D|--------------------------------------------------------------------------|
A|-----------------3-3-3-3-3-3-3-3-----------------5-5-5-5-5-5-5-5----------|
E|-0-0-0-0-0-0-0-0-----------------3-3-3-3-3-3-3-3--------------------------|

Outro:
G|--------------------------------------------------------------------------|
D|--------------------------------------------------------------------------|
A|-7------------------------------------------------------------------------|
E|---0-0--------------------------------------------------------------------|


| /  slide up
| \  slide down
| h  hammer-on
| p  pull-off
| ~  vibrato
| +  harmonic
| x  Mute note
            
Submit corrections


        Bobcaygeon lessons Hard to play? Try these video lessons and learn fast Bobcaygeon lessons
        
↑ Back to top | Tablatures and chords for acoustic guitar and electric guitar, ukulele, drums are parodies/interpretations of the original songs. You may use it for private study, scholarship, research or language learning purposes only