» » »

Tragically Hip - Boots Or Hearts Tabs

Artists:  A B C D E F G H I J K L M N O P Q R S T U V W X Y Z # 

Boots Or Hearts Tabs

(ver. 2) Click to play this song!
Tragically Hip
 Rating:
4.2/5 (5 votes)

 Boots Or Hearts lessons Tabs too difficult? Try these video lessons and learn fast
 
                Boots or Hearts - The Tragically Hip


Tune A sting down to G
Note: Use an upstroke when striking the the open 3rd string (G)

Intro:

E-|-----------------------------------------------------------------------|
B-|--0---0----------------------------------------------------------------|
G-|--4\2-0--0-0---0--0---0-0--------0--0-0---0-----------0--------0-------|
D-|------0--0-0---0--0---0-0-----------0-0---0--0-/3-2-0------------------|
G-|-------------0------0------0-3/4--------0----------------0-3/4---------|
E-|-----------------------------------------------------------------------|


E-|-----------------------------------------------------------------------|
B-|-----------------------------------------------------------------------|
G-|--0-0---0--0---0-0--------0--0-0---0---0-0-0-0-0-0-0-0-----------------|
D-|--0-0---0--0---0-0-----------0-0---0--/5-5-5-5-5-5-5-5-----------------|
G-|------0------0------0-3/4--------0-------------------------------------|
E-|-----------------------------------------------------------------------|

 C and D chords alternate between these chords:

   C     -5-    -6-      D    -7-    -8-
 chord   -5- => -5-    chord  -7- => -7-
         -5-    -7-           -7-    -9-

Fill A                 Fill B
E---------------       ---------------
B---------------       ---------------
G---------0-----       ---------------
D-0-3-2-0-------       -3\2-0-2p0-----
G---------------       -----------3p0-
E---------------       ---------------

Fill C                Fill D
----------------      ----------------
--6-5---6-5-3-0-      -6-5---6-5-6/8--
--5-5-5-5-5-3-0-      -5-5---5-5-5/7--
----------------      -----5-7-5-7/9--
----------------      ----------------
----------------      ----------------
G
Well I think that there's a problem here
G                               Fill B
her voice just don't sound right
G
but I left myself on her answering machine
G                                Fill A
said "I'm back in town tonight."
C
I feel I've stepped out of the wilderness
C                           Fill D
all squint-eyed and confused
G
but even babies raised by wolves
G                                        Fill B
they know exactly when they've been used

CHORUS:

C                    D
See when it starts to fall apart,
  G                  Fill A
it really falls apart
     C                  D
like boots or hearts, oh when they start
     G                Fill A
they really fall apart

G
Fingers and toes, fingers and toes,
G                    Fill C
forty things we share
G
forty-one if you include,
G
the fact that we don't care
C
now you've blocked off most of main street
C                    Fill D
for your faith parade
G
everyone in town now, they probably all agree
G
I'm lying in the bed I made

CHORUS

SOLO

G
Now you won't even let me talk to you
G
we got some air to clear
G
we'd probably only agree on one thing anyway
G                                      Fill C
that's what the hell is happening here?
C
fingers and toes, fingers and toes
C                    Fill D
forty things we share
G
forty-one if you include
G
the fact that we don't care

this is my version of this song. enjoy 
            
Submit corrections


        Boots Or Hearts lessons Hard to play? Try these video lessons and learn fast Boots Or Hearts lessons
        
↑ Back to top | Tablatures and chords for acoustic guitar and electric guitar, ukulele, drums are parodies/interpretations of the original songs. You may use it for private study, scholarship, research or language learning purposes only