» » »

Tragically Hip - Morning Moon Tabs

Artists:  A B C D E F G H I J K L M N O P Q R S T U V W X Y Z # 

Morning Moon Tabs

(ver. 2) Click to play this song!
Tragically Hip
 Rating:
4/5 (4 votes)

 Morning Moon lessons Tabs too difficult? Try these video lessons and learn fast
 
                (Intro)


Hello, This is a tab for the intro of the song "Morning Moon" by The Tragically Hip.

Enjoy!

|---------------------------------------------------------------|
|------0--------------------------------------------------------|
|-----2---2---2----------0-2--0-2h4-0-4p2-0h2-0-0-2---0---0-----|
|----2---2---2----------2----2-----2-----------0----0----0------|
|-0--------0---0--0h2-3-----------------------------------------|
|------------------------------------------------------3---3-2--|

|---------------------------------0---|
|------0---------------------1--1-----|
|-----2---2----2------------0--0------|
|----2---2----2-----------2-----------|
|--0-------0----0---0h2-3--------3----|
|-------------------------------------|
            
Submit corrections


        Morning Moon lessons Hard to play? Try these video lessons and learn fast Morning Moon lessons
        
↑ Back to top | Tablatures and chords for acoustic guitar and electric guitar, ukulele, drums are parodies/interpretations of the original songs. You may use it for private study, scholarship, research or language learning purposes only