» » »

Tragically Hip - Lionized Tabs

Artists:  A B C D E F G H I J K L M N O P Q R S T U V W X Y Z # 

Lionized Tabs

(ver. 2) Click to play this song!
Tragically Hip
 Rating:
4/5 (4 votes)

 Lionized lessons Tabs too difficult? Try these video lessons and learn fast
 
                Lionized - The Tragically Hip


I've tabbed out the notes but since rhythm is nearly impossible
to show in TAB I haven't always tabbed out all the strums needed.
It's easy to figure out if you listen to the CD though.. And occasionally 
some figures are modified as they lead into other figures. You can figure 
out those little modifications for yourself.

Dropped-D tuning

  *A                 *B                   *C
e|---------------  e|-----------------  e|---------
B|---------------  B|-----------------  B|---------
G|---------------  G|----10-----9-----  G|--10-10--
D|---------------  D|----10-----9-----  D|--10-10--
A|--0h5-5---5-5--  A|--8----*10*------  A|---8--8--
D|--------0------  D|-----------------  D|---------
                            *- not sure about this note
  *D
e|-------------------------------------------------
B|-------------------------------------------------  (this part varies -
G|--10-10-10--9-9-9--7-7--5-5-5--7-7-7-7--5-5-5-5--   try some hammer-ons
D|--10-10-10--9-9-9--7-7--7-7-7--7-7-7-7--7-7-7-7-- <--and pull-offs and
A|---8--8--8--7-7-7--5-5--5-5-5--5-5-5-5--5-5-5-5--    listen to the cd for
D|-------------------------------------------------     the rhythm)

  *E                    *F
e|------------------  e|-----------------------------------------
B|------------------  B|-----------------------------------------
G|--12-11-9-7-7--7--  G|--10-10-10--9-9-9--10\9-9--9\7-7--5/6/7--
D|--12-11-9-7-7--7--  D|--10-10-10--9-9-9--10\9-9--9\7-7--5/6/7--
A|--10--9-7-5-5--5--  A|---8--8--8--7-7-7---8\7-7--7\5-5--3/4/5--
D|------------------  D|-----------------------------------------

  *G
e|----------------------------------------------
B|----------------------------------------------
G|----------------------------------------------
D|------7---7--7-------7------9---9--9-------9--
A|----7---7------7---7------9---9------9---9----
D|--7--------------7------9--------------9------

  *H                  *I
e|----------------  e|----------
B|----------------  B|----------
G|--5-4-2--0-0-0--  G|--5-4-7~--
D|--5-4-2--5-5-5--  D|--5-4-7~--
A|--3-2-0--5-5-5--  A|--3-2-5~--
D|---------5-5-5--  D|----------

HOW IT ALL FITS TOGETHER:

*A
Cold wind blowing over your private parts
         *B                                    *A            *C
I know a lack you've got and it makes a strong case for art.
*A
Billboard breasts, they don't have a face,
            *B                             *A
I know that fact you've got, no girl could ever trace.

*D        *D       *E
Lionized, Lionize

*A
Smoking just a little too violently
            *B                          *A                *C
I know that fact I've got and I know it single-mindedly.

*A
Stupid, stoned cause and effect
         *B                                 *A
I know a lack you've got and you don't even lack it yet.

*D         *D         *F
Lionized,  Lionized,  Lionized

*G x2
(Sorry, I can't make out the words and they aren't listed in the booklet)

*E  *H
*E  *H

*A
I can't draw, but I can trace
         *B               *A                        *C
I know a lack I've got an abundance of extra space.
*A
Cold win blowing over your private parts
         *B                                  *A
I know a lack you've got is to make a strong case for art.

*D         *D        *F         *E         *H
Lionized,  Lionized, Lionized   Lionized

*E  *H
*E  *H
*E  *I
            
Submit corrections


        Lionized lessons Hard to play? Try these video lessons and learn fast Lionized lessons
        
↑ Back to top | Tablatures and chords for acoustic guitar and electric guitar, ukulele, drums are parodies/interpretations of the original songs. You may use it for private study, scholarship, research or language learning purposes only