» » »

Tragically Hip - Inevitability Of Death Tabs

Artists:  A B C D E F G H I J K L M N O P Q R S T U V W X Y Z # 

Inevitability Of Death Tabs

(ver. 2) Click to play this song!
Tragically Hip
 Rating:
4/5 (4 votes)

 Inevitability Of Death lessons Tabs too difficult? Try these video lessons and learn fast
 
                Inevitability of Death - The Tragically Hip
 
 
Nothing fancy here tab wise. The timing really doesn't mean
anything - just makes it look nice. But the general idea is there.
 
This song is in drop D tuning.
 
The main riff:
e-------------------------------------------------------
B-------------------------------------------------------
G-------------------------------------------------------
D-0h4-0h4-0h4--4-4--0h4-0h4-0h4--4-4--0h4-0h4-0h4--4-4--
A-0h4-0h4-0h4--4-4--0h4-0h4-0h4--4-4--0h4-0h4-0h4--4-4--
D-0h4-0h4-0h4--4-4--0h4-0h4-0h4--4-4--0h4-0h4-0h4--4-4--
 
End the main riff with either PARTS 1, 2 or 3, when appropriate
                                          (listen to the song)
These parts are used elsewhere, so mix and match
when needed!
 
PART 1
e-------------------------------------------------------
B-------------------------------------------------------
G-------------------------------------------------------
D--7--7-7--7-7--7-7--7-7--7-7--7------------------------
A--7--7-7--7-7--7-7--7-7--7-7--7------------------------
D--7--7-7--7-7--7-7--7-7--7-7--7------------------------
 
PART 2
e-------------------------------------------------------
B-------------------------------------------------------
G-------------------------------------------------------
D--7--7-7--7-7--7-2--2-2--2-2--2------------------------
A--7--7-7--7-7--7-2--2-2--2-2--2------------------------
D--7--7-7--7-7--7-2--2-2--2-2--2------------------------
 
PART 3
e-------------------------------------------------------
B-------------------------------------------------------
G-------------------------------------------------------
D--7--7-7--7-7--7-7--7-7--7-7--7--9-9--9-9--9-9--9-9--9-
A--7--7-7--7-7--7-7--7-7--7-7--7--9-9--9-9--9-9--9-9--9-
D--7--7-7--7-7--7-7--7-7--7-7--7--9-9--9-9--9-9--9-9--9-
 
CHORUS: ("I thought you beat the death...")
 
e-------------------------------------------------------
B-------------------------------------------------------
G-------------------------------------------------------
D--4-4--4--4--4-4--2--1--0-0-0--------------------------
A--4-4--4--4--4-4--2--1--0-0-0--------------------------
D--4-4--4--4--4-4--2--1--0-0-0--------------------------
 
Duncan
            
Submit corrections


        Inevitability Of Death lessons Hard to play? Try these video lessons and learn fast Inevitability Of Death lessons
        
↑ Back to top | Tablatures and chords for acoustic guitar and electric guitar, ukulele, drums are parodies/interpretations of the original songs. You may use it for private study, scholarship, research or language learning purposes only