Home » T » Tragically Hip »

Tragically Hip - Gift Shop Bass

Artists:  A B C D E F G H I J K L M N O P Q R S T U V W X Y Z # 

Gift Shop Bass

(ver. 2) Click to play this song!
Tragically Hip
 Rating:
4/5 (4 votes)
                The Tragically Hip


Intro: (Slowly)
G|--------------------|
D|--------------------|
A|----5-------8-------|
E|--------------------|


When Gordon says "Over the top" and "Becomes a gift shop" play this: (Slowly)
G|---------------------|
D|---------------------|
A|----3-------10-------| (That's a 10)
E|---------------------|

Play the top intro 2 more times then play

Verse: (A little faster now)
G|---------------------|
D|---------------------|
A|-5-5-3535-5----------|
E|------------0310-----| (That's a 1)

Play that a few times then play:

Chorus:
G|------------------------------------------|
D|------------------------------------------|
A|-5-5-555-8-8-888-3-3-333-5-5-555----------|
E|------------------------------------------|

Play this last time before the next verse:
G|----------------------|
D|----------------------|
A|-3333333333333333-----|
E|----------------------|

Play the verse and chorus however many times until you come to the guitar solo at the end.

During guitar solo:
G|----------------------------------|
D|----------------------------------|
A|-3-3-333-5-5----35----------------|
E|-------------035------------------|

ROCK ON!

I've been practicing this song for a very long time and I'm sure it's 100% right.

Feel free to comment on this (if you can) if you have any questions or comments on it.
            
Submit corrections

↑ Back to top | Tablatures and chords for acoustic guitar and electric guitar, ukulele, drums are parodies/interpretations of the original songs. You may use it for private study, scholarship, research or language learning purposes only