Home » T » Tragically Hip »

Tragically Hip - Boots Or Hearts Bass

Artists:  A B C D E F G H I J K L M N O P Q R S T U V W X Y Z # 

Boots Or Hearts Bass

(ver. 1) Click to play this song!
Tragically Hip
 Rating:
3.4/5 (28 votes)
                second verse
G|---------------------------------------------------------------------------|
D|---------------------------------------------------------------------------|
A|-------------------------------------------------0-2-3-3--3-3--3-3--3-3--2-|
E|---3-3--3-3--3-3--3-3--0-1-2-3-3--3-3--3-3--3-3----------------------------|

G|---------------------------------------------------------------------------|
D|---------------------------------------------------------------------------|
A|--0------------------------------------------------------------------------|
E|-----3-3--3-3--3-3--3-3--0-1-2---------------------------------------------|

chorus
G|---------------------------------------------------------------------------|
D|---------0-0---------------------0-0---------------------------------------|
A|---3-3---------------------3-3---------------------------------------------|
E|-------3-----1-3-3--3-3--3-----3-----1-3-3--3-3----------------------------|

thats pretty much the entire song. after the course, the riff for the verse is repeated.
            
Submit corrections

↑ Back to top | Tablatures and chords for acoustic guitar and electric guitar, ukulele, drums are parodies/interpretations of the original songs. You may use it for private study, scholarship, research or language learning purposes only