» » »

The Sword - Freya Tabs

Artists:  A B C D E F G H I J K L M N O P Q R S T U V W X Y Z # 

Freya Tabs

(ver. 3) Click to play this song!
The Sword
 Rating:
3.3/5 (16 votes)

 Freya lessons Tabs too difficult? Try these video lessons and learn fast
 
                Freya-The Sword------------------------------------------------------------------------------

Tuning: drop c

This is a really long and hard tab, but not a very hard song if you get the hang of it. 
is gonna take me like an hour or two lol. Please accept this!!!

                        intro:
D|--------------------------------------------------------------------------|
A|--------------------------------------------------------------------------|
F|--------------------------------------------------------------------------|
C|-0--0-----------------------0--0-------------------3----------------------|
G|-0--0--3h5-3h5--3-5-3-------0--0--3h5-3h5--3-5-3--------------------------|
C|-0--0----------------6-5-3--0--0----------------6-5-----------------------|

                        intro continued.....
D|--------------------------------------------------------------------------|
A|--------------------------------------------------------------------------|
F|--------------------------------------------------------------------------|
C|-0--0-----------------------5--5-3-5--3-5-6-5-3-0-------------------------|
G|-0--0--3h5-3h5--3-5-3-------5--5-3-5--3-5-6-5-3-0-------------------------|
C|-0--0----------------6-5-3--5--5-3-5--3-5-6-5-3-0--whole intro x2---------|


                              riff 1:
D---------------------------------------------------------------------------|
A---------------------------------------------------------------------------|
F----------------------7--5----------7--7-5-77------------------------------|
C-0--------------------7--5--------0-7--7-5-77------------------------------|
G-0--------------------5--3--------0-5--5-3-55------------------------------|
C-0-0000000000000000000-00-000000000--00------00000000-x3-------------------|

                             riff 1 continued.....
D|--------------------------------------------------------------------------|
A|--------------------------------------------------------------------------|
F|--------------------------------------------------------------------------|
C|-8--7--1012-10-7----------------------------------------------------------|
G|-6--5--8-10-8--5---whole riff x2------------------------------------------|
C|--------------------------------------------------------------------------|


                             chorus:
D|--------------------------------------------------------------------------|
A|--------------------------------------------------------------------------|
F|--------------------------------------------------------------------------|
C|-0----------------3---3-5-3----5-7----------------------------------------|
G|-0--5-5-5-3-3-3-35-5-----------3-5-0-6-0----------------------------------|
C|-0-------------------------x6------0-6-0-x8-------------------------------|

                           Main riff 2:
D|--------------------------------------------------------------------------|
A|--------------------------------------------------------------------------|
F|-----7--7-5-77------------------------------------------------------------|
C|-----7--7-5-77-----------8--7--101210-7-----------------------------------|
G|-----5--5-3-55-----------6--5--8-10-8-5-----------------------------------|
C|-0000-00------00000000-x3-------------------------------------------------|

                           solo:
D|--------------------------------------------------------------------------|
A|--------------------------------------------------------------------------|
F|-11b----------------------------------------------------------------------|
C|-----9h11--9h11h9h11h9h11-------------------------------------------------|
G|-------------------------9h11h9h11h9h11-7h9h7h9h7h9-11--------------------|
C|--------------------------------------------------------------------------|

                         solo continued.........
D|--------------------------------------------------------------------------|
A|---------------9h11h9h11h9h11-11-11-11-11b--------------------------------|
F|-9h11h9h11h9h11-----------------------------------------------------------|
C|-------------------------------------------5-5--------0-------------------|
G|-------------------------------------------3-3--------0-------------------|
C|-----------------------------------------------656-3--0-------------------|


                               chorus:
D|--------------------------------------------------------------------------|
A|--------------------------------------------------------------------------|
F|--------------------------------------------------------------------------|
C|-0----------------3---3-5-3----5-7----------------------------------------|
G|-0--5-5-5-3-3-3-35-5-----------3-5-0-6-0----------------------------------|
C|-0-------------------------x6------0-6-0-x8-------------------------------|


                              bridge 1:

D|--------------------------------------------------------------------------|
A|--------------------------------------------------------------------------|
F|-5-7----------------------------------------------------------------------|
C|-5-7-----------8-7-8-7----------------------------------------------------|
G|-3-5-----------6-5-6-5-------0-1-0--0-1-0--0------------------------------|
C|-----0-6-0-x16----0---0-x16--0-1-0--0-1-0--0-x16--------------------------|

                              bridge:
D|--------------------------------------------------------------------------|
A|--------------------------------------------------------------------------|
F|--------------------------------------------------------------------------|
C|--------------------------------3-3h5p3-----------------------------------|
G|-0-3h5--3-5-3-5-3-5-0-0--0-0-3-5------------------------------------------|
C|-0------------------0-0--0-0-----------x6---------------------------------|


                              Outro:
D|--------------------------------------------------------------------------|
A|--------------------------------------------------------------------------|
F|--------------------------------------------------------------------------|
C|-0--0-----------------------0--0-------------------3----------------------|
G|-0--0--3h5-3h5--3-5-3-------0--0--3h5-3h5--3-5-3--------------------------|
C|-0--0----------------6-5-3--0--0------------------------------------------|


                            Outro continued......
D|--------------------------------------------------------------------------|
A|--------------------------------------------------------------------------|
F|--------------------------------------------------------------------------|
C|-0--0-----------------------5--5-3-5--3-5-6-5-3-0-------------------------|
G|-0--0--3h5-3h5--3-5-3-------5--5-3-5--3-5-6-5-3-0-------------------------|
C|-0--0----------------6-5-3--5--5-3-5--3-5-6-5-3-0--whole intro x2---------|

enjoy this awesome song
            
Submit corrections


        Freya lessons Hard to play? Try these video lessons and learn fast Freya lessons
        
↑ Back to top | Tablatures and chords for acoustic guitar and electric guitar, ukulele, drums are parodies/interpretations of the original songs. You may use it for private study, scholarship, research or language learning purposes only