Home » T » The Sword »

The Sword - Freya Bass

Artists:  A B C D E F G H I J K L M N O P Q R S T U V W X Y Z # 

Freya Bass

(ver. 2) Click to play this song!
The Sword
FREYA - THE SWORD

Currently : Unfinished

Tuning: Normal (EADG)
I know this song is done on drop C tuning, but I hate to tune down my bass just to play 
song, so I put it up one octave. This is my first tab, forgive me if the time is bleh. ;D


G---------------------------------------------------------------8-|
D-------8h10-8h10--8-10-8-----------------8h10-8h10-8-10-8----8---|
A-------------------------10-8-6b7-------------------------10-----|
E--8-8--------------------------------8-8-------------------------|
                                                                         <2x
G----------------------------------------------------------------|
D-------8h10-8h10--8-10-8----------------------5-----------------|
A-------------------------10-8-6--8-8-6-8--6-8---8-6-------------|
E--8-8-----------------------------------------------------------|

*let the guitar play*

0:26

G----------------------------------------------------------------|
D----------------------------------------------------------------|
A----------------------------------------------------------------|
E--8-8-8-8-8-8-8-8-8-8-8-8-8-8-8-888-8-8-8-8-8-8-8-8-8-8-8-8-8-8-|


G----------------------------------------------8-10-8------|
D--------------------------------------10--8-----------10--|
A----------------------------------------------------------|
E-8-888-8-8-8-8-8-8-8-8-8-8-8-8-8-8-8----------------------|


G----------------------------------------------------------------|
D----------------------------------------------------------------|
A----------------------------------------------------------------|
E--8-8-8-8-8-8-8-8-8-8-8-8-8-8-8-888-8-8-8-8-8-8-8-8-8-8-8-8-8-8-|


G----------------------------------------------------------|
D--------------------------------------8--8----------------|
A--------------------------------------------10-8-10--6----|
E-8-888-8-8-8-8-8-8-8-8-8-8-8-8-8-8-8----------------------|

0:47

G----------------------------8--------8-10-8---|
D-----10-10--10--8-8-8-----8---10--------------|         < x6
A-----------------------10---------------------|
E-8--------------------------------8-----------|

1:18

G-------------------|
D---8-10------------|
A-------------------|      < x7
E-8-------8-9-8-8---|
            
Submit corrections

↑ Back to top | Tablatures and chords for acoustic guitar and electric guitar, ukulele, drums are parodies/interpretations of the original songs. You may use it for private study, scholarship, research or language learning purposes only