» » »

The Sword - Empty Temples Tabs

Artists:  A B C D E F G H I J K L M N O P Q R S T U V W X Y Z # 

Empty Temples Tabs

(ver. 1) Click to play this song!
The Sword
 Rating:
4.4/5 (22 votes)

 Empty Temples  lessons Tabs too difficult? Try these video lessons and learn fast
 
                -----------------------
         INTRO
-----------------------

e|---------------------|
B|---------------------|
G|------9----------9---|
D|---------------------|
A|-7--7---7---7--7---7-|
E|---------------------| 8x

As it goes, a second guitar comes in doing this (but I may be wrong, it's quite hard to hear):
e|------------------|
B|------------------|
G|------------------|
D|-9p7h9p79p7h9p7h9-|
A|------------------|
E|------------------|

Now, here's what you came here for.
e|-------------------------------------|
B|-------------------------------------|
G|-9p7---------------------------------|
D|-----9p7h9p7~------------------------|
A|--------------7----7/9--7------------|
E|----------------10---------0--0-0--0-| 4x - On the fourth, you play the palm muted E only three times, then:
                             *  * *  *
e|--------------------------------------------------------------|
B|--------------------------------------------------------------|
G|----------------------------7h9p7---7~---999999999999---------|
D|------------------------7h9-------9------------------9999999\-|
A|-5\4/5---4/5/7---9\7/9-------------------------------7777777\-|
E|-3\2/3---2/3/5---7\5/7----------------------------------------|

---------------------
         VERSE
---------------------

e|-----------------------------------------------------------------------------|
B|-----------------------------------------------------------------------------|
G|-----------------------------------------------------------------------------|
D|-9-----7/9\7----7-9-----7/9\7----7-9--7-9---7/9\7--7/9\7---7-5---5-4---4/7/9-|
A|-7-----5/7\5----5-7-----5/7\5----5-7--5-7---5/7\5--5/7\5---5-3---3-2---2/5/7-|
E|-----------------------------------------------------------------------------|

e|------------------------------------------------------------------------------|
B|------------------------------------------------------------------------------|
G|------------------------------------------------------------------------------|
D|-------------7-9-9-9-9-9-9-9-9-9-9---------7/9\7------------------------------|
A|-4-5---9\7---5-7-7-7-7-7-7-7-7-7-7---4-5---5/7\5---7--9-9-9-9-9-9-9-9-9-9-9-9-|
E|-2-3---7\5---------------------------2-3-----------5--7-7-7-7-7-7-7-7-7-7-7-7-|
Then play that awesome intro riff until the 2nd verse.

Before the bridge starts, the lead goes:
e|-10b12-10~-----------------------------------10--12-12-12-12-12-|
B|------------10b12-10--8---------8~--10b12-10--------------------|
G|------------------------9~----7---------------------------------|
D|----------------------------------------------------------------|
A|----------------------------------------------------------------|
E|----------------------------------------------------------------|
---------------------
        BRIDGE
---------------------

e|--------------------------------------------------------------------------|
B|--------------------------------------------------------------------------|
G|--------------------------------------------------------------------------|
D|-9--9-9-9--9--9-9-9--9--9-9-9--9--9-9-9--9--9-9-9--9--9-9-9--12--12--7--7-|
A|-7--7-7-7--7--7-7-7--7--7-7-7--7--7-7-7--7--7-7-7--7--7-7-7--10--9---5--4-|
E|--------------------------------------------------------------------------|

----------------------
   BRIDGE PT 2/SOLO
----------------------
The lead just plays the solo an octave higher.
e|-------------------------------------------------------------------|
B|-------------------------------------------------------------------|
G|-------------------------------------------------------------------|
D|-------------------------------------------------5b----------------|
A|-5~-----5/7~----9-7-9--------5h7p5---5~--7-7-5-7----7-5-7-9-7-5-7~-|
E|-3~--0--3/5~--0-7-5-7--0-5h7-------7-------------------------------| 4x 
                                                    (add an F5 chord before the first F#5)

On the third repeat, the lead guitar does:
e|-------------15---------------------------|
B|-17-17-15-17-----17-15-17-17b19-17-15-17~-|
G|------------------------------------------|
D|------------------------------------------|
A|------------------------------------------|
E|------------------------------------------|

---------------------
        OUTRO
---------------------            
Submit corrections


        Empty Temples  lessons Hard to play? Try these video lessons and learn fast Empty Temples  lessons
        
↑ Back to top | Tablatures and chords for acoustic guitar and electric guitar, ukulele, drums are parodies/interpretations of the original songs. You may use it for private study, scholarship, research or language learning purposes only