Home » T » The Sword »

The Sword - Freya Tabs

Artists:  A B C D E F G H I J K L M N O P Q R S T U V W X Y Z # 

Freya Tabs

(ver. 2) Click to play this song!
The Sword
Freya
The Sword
Age of Winters

Tuning: Drop C

h = hammer on
p = pull off
/ = slide up to
v = vibrato
pm = palm muting
t = trill (rapid change between two notes)

When you play the 5 hammer to 7, the five is a very short grace note.


Riff 1
-------------------------------------------------|
-------------------------------------------------|
-------------------------------------------------|
-------------------------------------------------|
---------5h7---5h7----5-7p5----------------------|
-0----0--------------------------7--5--3h5-------|

Riff 2
--------------------------------------------------|
--------------------------------------------------|
--------------------------------------------------|
-------------------------------------5------------|
---------5h7---5h7---5-7p5------------------------|
-0----0------------------------7p5----------------|


Riff 3
------------------------------------------------------------|
------------------------------------------------------------|a pinch harmonic
------------------------------------------------------------|sounds good on
------------------------------------------------------------|the 2nd to last note
---------5h7---5h7---5-7p5----------------------------------|
-0----0----------------------7p5--3---5--5-3---5--3-5b--3---|


Repeat riff 1, riff two, and riff three

Riff 4
---------------------------------------------------------------------|
---------------------------------------------------------------------|
---------------------------------------------------------------------|
---------------------------------------------------------------------|
---------------------------------------------------------------------|
-0-0-0-0-0-0-0-0-0-0-0-0-0-0-0-00-0-0-0-0-0-0-0-0-0-0-0-0-0-0-0-0-0--|


Riff 5
--------------------------------------------------|
--------------------------------------------------|
---------9-----9--7---9--9------------------------|
---------9-----9--7---9--9------------------------|
---------7-----7--5---7--7------------------------|
-0-0-0-0---0-0-------------0-0-00-----------------|
 pm        pm              pm

Repeat Riff 5 two more times

Riff 6
--------------------------------------------------|
--------------------------------------------------|
--10---9------------------------------------------|
--10---9----5h7--5--------------------------------|
--8----7-------------7v---------------------------|
--------------------------------------------------|

Repeat Riff 5 two times

Riff 7
--------------------------------------------------|
--------------------------------------------------|
---------9-----10--12--10--9----------------------|
---------9-----10--12--10--9----------------------|
---------7-----8---10--8---7----------------------|
-0-0-0-0---0-0---------------0-0-00---------------|
pm         pm                pm

Riff 8
--------------------------------------------------|
--------------------------------------------------|
--7---7-------------------------------------------|
--7---7-------------------------------------------|
--5---5-------------------------------------------|
---------5-7-5-7---3------------------------------|

Riff 9
-------------------------------------------------------|
-------------------------------------------------------|
-----9--9--9--7--7--7----------------------------------|
-----9--9--9--7--7--7-------5------------5h7p5b--------|
-----7--7--7--5--5--5--5h7-----7----5h7----------------|
-0-----------------------------------------------------|

Repeat Riff 9 5 more times

Riff 10
--------------------------------------------------|
--------------------------------------------------|
--7/9------9---9---9------------------------------|
--7/9------9---9---9------------------------------|
--5/7------7---7---7------------------------------|
-------------0------------------------------------|

Repeat Riff 10 7 more times

Riff 5, 3 times

Riff 6

Riff 5, 2 times  (soloing going on)

Riff 7           (soloing going on)

Riff 8

Riff 9, 6 times

Riff 10, 56 times (yes. 56 times.)

Riff 11
--------------------------------------------------|
--------------------------------------------------|
--------------------------------------------------|
-7h9----7--5h7p5---------5------------------------|
----------------------7-----7---------------------|
--------------------------------------------------|

Riff 12
--------------------------------------------------|
--------------------------------------------------|
--9-9---9---7-9----------7--7h9p7--9v-------------|
--9-9---9---7-9----7h9----------------------------|
--7-7---7---5-7-----------------------------------|
--------------------------------------------------|

Riff 13
--------------------------------------------------|
-------------------------8---8h10p8---------------|
--9-9---9---7-9----7h9----------------9v----------|
--9-9---9---7-9-----------------------------------|
--7-7---7---5-7-----------------------------------|
--------------------------------------------------|

Riff 12

Riff 13

Riff 14
--------------------------------------------------|
--------------------------------------------------|
--9-9---9---7-9-----------------------------------|
--9-9---9---7-9---7/9-7-5-7-5---------------------|
--7-7---7---5-7------------------7----------------|
--------------------------------------------------|

Riff 15
--------------------------------------------------|
--------------------------------------------------|
-9-9---9---7-9----------7-----7-------------------|
-9-9---9---7-9---7t9-------9----------------------|
-7-7---7---5-7------------------------------------|
--------------------------------------------------|

Riff 16
--------------------------------------------------|
--------------------------------------------------|
-9-9---9---7-9------------------------------------|
-9-9---9---7-9------------------------------------|
-7-7---7---5-7------------------------------------|
--------------------------------------------------|

Drum fill

Riff 16

Drum Fill

Riff 16

Drum Fill

Riff 16

Drum + bass fill

Riff 17
----------------------------------------------------|
----------------------------------------------------|
--9-9-----7-9---------------------------------------|
--9-9-----7-9---------------------------------------|
--7-7-----5-7------------5-5h7p5--7v----------------|
------------------5h7-------------------------------|

Riff 18
--------------------------------------------------|
----------------------8--8h10p8-------------------|
--9-9-----7-9-----7h9------------9v---------------|
--9-9-----7-9-------------------------------------|
--7-7-----5-7-------------------------------------|
--------------------------------------------------|

Riff 19
--------------------------------------------------|
--------------------------------------------------|
--9-9-----7-9-------------------------------------|
--9-9-----7-9---7h9p7--5-7-5---5--7b--------------|
--7-7-----5-7----------------7--------------------|
--------------------------------------------------|

Riff 1

Riff 2

Riff 3

Riff 1 (soloing)

Riff 2 (soloing)

Riff 3

End with two open C's


COMPLETE ORDER
--------------
Riff 1
Riff 2
Riff 3
Riff 1
Riff 2
Riff 3
Riff 4
Riff 5 x3
Riff 6
Riff 5 x3
Riff 7
Riff 8
Riff 9 x6
Riff 10 x8
Riff 5 x3
Riff 6
Riff 5 x2 (soloing going on)
Riff 7    (soloing going on)
Riff 8
Riff 9 x6
Riff 10 x56
Riff 11
Riff 12
Riff 13
Riff 12
Riff 13
Riff 14
Riff 15
Riff 16 x4
Riff 17
Riff 18
Riff 19
Riff 1
Riff 2
Riff 3
Riff 1
Riff 2
Riff 3
end

----------
upon further inspection, this tab has WAYYYY too many riffs and is probably very confusing.

I'm sorry for this. Do your best.
            
Submit corrections

↑ Back to top | Tablatures and chords for acoustic guitar and electric guitar, ukulele, drums are parodies/interpretations of the original songs. You may use it for private study, scholarship, research or language learning purposes only