» » »

The Sword - Freya Bass

Artists:  A B C D E F G H I J K L M N O P Q R S T U V W X Y Z # 

Freya Bass

(ver. 1) Click to play this song!
The Sword
 Rating:
4/5 (4 votes)

 Freya lessons Tabs too difficult? Try these video lessons and learn fast
 
                -------------------------------------------------------------------------------
-------------------------------------------------------------------------------



Tuning: Drop C     (C G C F)


0:00 (x2)  Second time end on an open C

F|---------------------------------------------------------------------------|
C|-------------------------------------------------------3-------------------|
G|-------3h5-3h5--3-5-3---------------3h5-3h5--3-5-3-------------------------|
C|--0--0----------------6-5-3-5--0--0----------------6-5---------------------|

F|---------------------------------------------------------------------------|
C|---------------------------------------------------------------------------|
G|-------3h5-3h5--3-5-3------------------------------------------------------|
C|--0--0----------------6-5-3--5-5--3-5--3-5b6-5-3---------------------------|

0:21   Guitar Plays for 4 bars then the Bass comes in

F|---------------------------------------------------------------------------|
C|---------------------------------------------------------------------------|
G|----------5-----5---3---5-5---------------5-----5---3---5-5----------------|
C|--0-0-0-0---0-0---0---0-----0-000-0-0-0-0---0-0---0---0-----0-000----------|

F|---------------------------------------------------------------------------|
C|---------------------------------------3h5-3-------------------------------|
G|----------5-----5---3---5-5------6--5--------5-----------------------------|
C|--0-0-0-0---0-0---0---0-----0-0--------------------------------------------|

0:36

F|---------------------------------------------------------------------------|
C|---------------------------------------------------------------------------|
G|----------5-----5---3---5-5---------------5-----5---3---5-5----------------|
C|--0-0-0-0---0-0---0---0-----0-000-0-0-0-0---0-0---0---0-----0-000----------|

F|---------------------------------------------------------------------------|
C|---------------------------------------------------------------------------|
G|----------5-----6---8---6-6--------3--3------------------------------------|
C|--0-0-0-0---0-0---0---0-----0-000--------5h6p5-6-2-------------------------|

0:47 (x6)

F|---------------------------------------------------------------------------|
C|---------------------3--------5h6-5----------------------------------------|
G|-----5-5-5-3-3-3-3h5---5---------------------------------------------------|
C|--0-------------------------0----------------------------------------------|

1:18 (x2)

F|---------------------------------------------------------------------------|
C|---------------------------------------------------------------------------|
G|----3h5-----------3h5-----------3h5-----------3h5--------------------------|
C|--0------0-6-0--0------0-6-0--0------0-6-0--0------0-6-0-------------------|

1:29 

F|---------------------------------------------------------------------------|
C|---------------------------------------------------------------------------|
G|----------5-----5---3---5-5---------------5-----5---3---5-5----------------|
C|--0-0-0-0---0-0---0---0-----0-000-0-0-0-0---0-0---0---0-----0-000----------|

F|---------------------------------------------------------------------------|
C|---------------------------------------3h5-3-------------------------------|
G|----------5-----5---3---5-5------6--5--------5-----------------------------|
C|--0-0-0-0---0-0---0---0-----0-0--------------------------------------------|

1:39

F|---------------------------------------------------------------------------|
C|---------------------------------------------------------------------------|
G|----------5-----5---3---5-5---------------5-----5---3---5-5----------------|
C|--0-0-0-0---0-0---0---0-----0-000-0-0-0-0---0-0---0---0-----0-000----------|

F|---------------------------------------------------------------------------|
C|---------------------------------------------------------------------------|
G|----------5-----6---8---6-6--------3--3------------------------------------|
C|--0-0-0-0---0-0---0---0-----0-000--------5h6p5-6-2-------------------------|

1:50 (x6)

F|---------------------------------------------------------------------------|
C|---------------------3--------5h6-5----------------------------------------|
G|-----5-5-5-3-3-3-3h5---5---------------------------------------------------|
C|--0-------------------------0----------------------------------------------|

2:21 (x4)

F|---------------------------------------------------------------------------|
C|---------------------------------------------------------------------------|
G|----3h5-----------3h5-----------3h5-----------3h5--------------------------|
C|--0------0-6-0--0------0-6-0--0------0-6-0--0------0-6-0-------------------|

2:41 (x2)

F|---------------------------------------------------------------------------|
C|---------------------------------------------------------------------------|
G|----6p5-----------6p5-----------6p5-----------6p5--------------------------|
C|--0------0-5-0--0------0-5-0--0------0-5-0--0------0-5-0-------------------|

2:52 (x8)

F|---------------------------------------------------------------------------|
C|---------------------------------------------------------------------------|
G|----3h5----6p5----3h5----6p5-----------------------------------------------|
C|--0------0------0------0---------------------------------------------------|

3:12 (x2)

F|---------------------------------------------------------------------------|
C|---------------------------------------------------------------------------|
G|----6p5----6p5----6p5----6p5---6p5----6p5----6p5----6p5--------------------|
C|--0------0------0------0-----0------0------0------0------------------------|

3:22 (x2)

F|---------------------------------------------------------------------------|
C|---------------------------------------------------------------------------|
G|----3h5----3h5----3h5----3h5----3h5----3h5----3h5----3h5-------------------|
C|--0------0------0------0------0------0------0------0-----------------------|

3:33

F|---------------------------------------------------------------------------|
C|--7--5----5----------------------------------------------------------------|
G|--------8---8--5--3--5-5-----------5-----------5-5-------------5-----------|
C|---------------------------------0---------------------------0-------------|

F|---------------------------------------------------------------------------|
C|--------------------------------------------------------5-3----------------|
G|--5-5----------5-------3-5-3-5---5-5-----------5----3-5-----5--------------|
C|-------------0-----0-5-----------------------0----0------------------------|

3:45

F|---------------------------------------------------------------------------|
C|---------------------------------------------------------------------------|
G|--5-5----------5--------5-5-----------5------------------------------------|
C|-------------0----------------------0--------------------------------------|

3:51 (x2)

F|---------------------------------------------------------------------------|
C|---------------------------------------------------------------------------|
G|--5------------5--------5-------------5------------------------------------|
C|-------------0----------------------0--------------------------------------|

4:01 (x2)
F|---------------------------------------------------------------------------|
C|---------------------------------------------------------------------------|
G|--5-5----------5--------5-5-----------5------------------------------------|
C|-------------0----------------------0--------------------------------------|

4:11 (x2)   Second time end on open C

F|---------------------------------------------------------------------------|
C|-------------------------------------------------------3-------------------|
G|-------3h5-3h5--3-5-3---------------3h5-3h5--3-5-3-------------------------|
C|--0--0----------------6-5-3-5--0--0----------------6-5---------------------|

F|---------------------------------------------------------------------------|
C|---------------------------------------------------------------------------|
G|-------3h5-3h5--3-5-3------------------------------------------------------|
C|--0--0----------------6-5-3--5-5--3-5--3-5b6-5-3---------------------------|


| b  bend
| /  slide up
| \  slide down
| h  hammer-on
| p  pull-off
| ~  vibrato
| +  harmonic
| x  Mute note
            
Submit corrections


        Freya lessons Hard to play? Try these video lessons and learn fast Freya lessons
        
↑ Back to top | Tablatures and chords for acoustic guitar and electric guitar, ukulele, drums are parodies/interpretations of the original songs. You may use it for private study, scholarship, research or language learning purposes only