» » »

Them Crooked Vultures - Paved Death Tabs

Artists:  A B C D E F G H I J K L M N O P Q R S T U V W X Y Z # 

Paved Death Tabs

(ver. 1) Click to play this song!
Them Crooked Vultures
 Rating:
4/5 (7 votes)

 Paved Death lessons Tabs too difficult? Try these video lessons and learn fast
 
                This is a cool minamalistic (simple) piece based around one riff in different keys and 
riff is developed throughout the song. Great stuff from this band. They're my favourite. 
this is not on the album.

Tuning: Drop D

Riff 1
e----------------------------------------------|
B----------------------------------------------|
G----------------------------------------------|
D--------------------------------------9---12--|
A-2-0-2-5--2-0-2-5-2-0-2--2-0-2-5----9---12----|
D-2-0-2-5--2-0-2-5-2-0-2--2-0-2-5--9---12------|

Riff 2
e----------------------------------------------|
B----------------------------------------------|
G----------------------------------------------|
D----------------------------------------------|
A-5-3-5-8--8-10-12-10-5-8-5--3--2--------------|
D-5-3-5-8--8-10-12-10-5-8-5--3--2--------------|

Riff 3
e
B----------------------------------------------|
G----------------------------------------------|
D----------------------------------------------|
A-0--3--0--0-3-0-5-3---------------------------|
D-0--3--0--0-3-0-5-3---------------------------|

I'm very sure this TAB is 100% correct and if you put these riffs into the order of the 
that's basically it. enjoy. (Riffs are tabbed in the order they are first played in i.e. 
1, Riff 2, Riff 1, Riff 2, Riff 3 etc.)
            
Submit corrections


        Paved Death lessons Hard to play? Try these video lessons and learn fast Paved Death lessons
        
↑ Back to top | Tablatures and chords for acoustic guitar and electric guitar, ukulele, drums are parodies/interpretations of the original songs. You may use it for private study, scholarship, research or language learning purposes only