Home » T » Them Crooked Vultures »

Them Crooked Vultures - Caligulove Bass

Artists:  A B C D E F G H I J K L M N O P Q R S T U V W X Y Z # 

Caligulove Bass

(ver. 1) Click to play this song!
Them Crooked Vultures
 Rating:
4/5 (5 votes)
                -------------------------------------------------------------------------------
-------------------------------------------------------------------------------


Tuning: Standard

I updated it to show all the little parts and the order
enjoy this awesome song!

I have also updated the intro and the chorus to sound better

Intro
G|---------------------------------------------------------------------------|
D|--------------------10-----------------------------------------------------|
A|-5-7-8-10--10-8-7------10/12-12--12----(x4)--------------------------------|
E|---------------------------------------------------------------------------|


Verse                                   Transition
G|---------------------------------------------------------------------------|
D|-------3-3---5-------------------------------------------------------------|
A|-3-5-5---------------(x3)------------------6p5-6p5-6p5-6p5--(x4)-----------|
E|---------------------------------------------------------------------------|

then play-
verse x7
transition x4


Pre-Chorus
G|---------------------------------------------------------------------------|
D|---------------------------------------------------------------------------|
A|-5-5-5--3-5-5--53-5-6-6-6-3---6-6-68-6-------------------------------------|
E|-------5--------------------5----------------------------------------------|

G|----7--7---------7--7----------8-8---------8-8-----------------------------|
D|---------------------------------------------------------------------------|
A|-5---5------3-5---5----3--5--6--6---3---6---6---8--6-----------------------|
E|----------5---------------------------5------------------------------------|

G|---------------------------------------------------------------------------|
D|---------------------------------------------------------------------------|
A|-5-5-5--3-5-5--53-5-6-6-6-3---6-6-68-6-------------------------------------|
E|-------5--------------------5----------------------------------------------|

G|---------------------------------------------------------------------------|
D|---------------------------------------------------------------------------|
A|-5-5-5-----5-5-53-5--6-6-63-6-6-68-6---------------------------------------|
E|---------------------------5-----------------------------------------------|


Chorus
G|---------------------------------------------------------------------------|
D|-5-5-575-------------5-5-575----------5-5-5-------------5-5-57-------------|
A|---------5-5-56--5-----------5-5-53-5-----------5-5-56-5------6--5-5-56-5--|
E|---------------------------------------------------------------------------|

G|---------------------------------------------------------------------------|
D|-5-5-575-------------------------------------------------------------------|
A|---------5-5-55555-6p5-6p5-6p5-6p5-6p5-6p5-6p5-6p5-------------------------|
E|---------------------------------------------------------------------------|

Then play-
Verse x13
Transition x4
Pre Chorus
Chorus x2

Bridge
G|---------------------------------------------------------------------------|
D|-----------------------------------6---------------------------------------|
A|-play-5--for a while----then play------------------------------------------|
E|---------------------------------------------------------------------------|

Then play the intro 4 times to finish it off!
Enjoy!
            
Submit corrections

↑ Back to top | Tablatures and chords for acoustic guitar and electric guitar, ukulele, drums are parodies/interpretations of the original songs. You may use it for private study, scholarship, research or language learning purposes only