Home » T » The Last Shadow Puppets »

The Last Shadow Puppets - Age Of The Understatement Tabs

Artists:  A B C D E F G H I J K L M N O P Q R S T U V W X Y Z # 

Age Of The Understatement Tabs

(ver. 2) Click to play this song!
The Last Shadow Puppets
Not sure if this is 100% correct, just created by ear and a little bit from watching 
I don't have the chords down yet, so PLEASE feel free to add/correct what you would like (I 
get offended).


\ - slide down
/ - slide up
~ - let ring


e |-------------------------|
B |-------------------------|
G |-------------------------|
D |-------------------------|
A |-2--4--5--7--9-----------| x2
E |-------------------------|

e |-------------------------|
B |-------------------------|
G |-2/4~~~~~----------------|
D |-------------------------|
A |-------------------------|
E |-------------------------|


Right after first verse...
e |-----------------------------|
B |-----------------------------|
G |-------------2/4~~~~---------|
D |-----------------------------|
A |-----------------------------|
E |---10\5----------------------|


"She was walking on the tables....."
e |--------------------------|
B |--------------------------|
G |--------------------------|
D |--------------------------|
A |--0------2~---------------|
E |------3-------------------|


"Twenty little tragedies....."
e |---7/10--10-10-10/12-12-12-12/15-15-15-14\0-------------|
B |--------------------------------------------------------|
G |--------------------------------------------------------|
D |--------------------------------------------------------|
A |--------------------------------------------------------|
E |--------------------------------------------------------|


Right before "And she was...."
e |---------------------------------------------------|
B |--------------9-10--7--8--7------------------------|
G |------11--7-------------------------------11~------|
D |---9--------------------------7--9~----------------|
A |---------------------------------------------------|
E |---------------------------------------------------|

OR

e |-------------------------------------------------------|
B |-------------9-10--7h8---------------------------------|
G |-----11--7--------------9-------------11b--------------|
D |--9-------------------------7--9-----------------------|
A |-------------------------------------------------------|
E |-------------------------------------------------------|
(sometimes miles plays it like this live.....I think).


Right after the chorus (during the ahh-ing)
e |------------------------------|
B |------------------------------|
G |------------------------------|
D |------------------------------|
A |---------------1~---2~--------|
E |----3~---2~-------------------|
            
Submit corrections

↑ Back to top | Tablatures and chords for acoustic guitar and electric guitar, ukulele, drums are parodies/interpretations of the original songs. You may use it for private study, scholarship, research or language learning purposes only