Home » T » The Last Shadow Puppets »

The Last Shadow Puppets - Separate And Ever Deadly Tabs

Artists:  A B C D E F G H I J K L M N O P Q R S T U V W X Y Z # 

Separate And Ever Deadly Tabs

(ver. 1) Click to play this song!
The Last Shadow Puppets
0:00 - 0:25

e - 2-2-2-222-2-2-2--2-2-2-222-2-2-2--7-7-7-777-7-7-7--2-2-2-222-2-2-2-----|
b - 3-3-3-333-3-3-3--3-3-3-333-3-3-3--8-8-8-888-8-8-8--3-3-3-333-3-3-3-----|
g - 4-4-4-444-4-4-4--4-4-4-444-4-4-4--9-9-9-999-9-9-9--4-4-4-444-4-4-4-----|   x2
d - 4-4-4-444-4-4-4--4-4-4-444-4-4-4--9-9-9-999-9-9-9--4-4-4-444-4-4-4-----|
a - 2-2-2-222-2-2-2--2-2-2-222-2-2-2--7-7-7-777-7-7-7--2-2-2-222-2-2-2-----|
E - -----------------------------------------------------------------------|


0:29 - 0:41

e --------------------------------------------------|
b --------------------------------------------------|
g --------------------------------------------------|    x2
d - ------------------------------------------------|
a --2-22-5-4--------2-----2-22-5-4--------2---------|
E -------------3-33---2--------------3-33---2-------|

0:41 - 0:55

e---------------------------------------------------|
b---------------------------------------------------|
g---------------------------------------------------|     x2
d---------------------------------------------------|
a- 22225544------22-----22225544------22------------|
E -----------3333----22-----------3333----22--------|

e------|
b------|
g------|
d------|
a -2---
E -----

1:05- 1:18

e - 2-2-2-222-2-2-2--2-2-2-222-2-2-2--7-7-7-777-7-7-7--2-2-2-222-2-2-2-----|
b - 3-3-3-333-3-3-3--3-3-3-333-3-3-3--8-8-8-888-8-8-8--3-3-3-333-3-3-3-----|
g - 4-4-4-444-4-4-4--4-4-4-444-4-4-4--9-9-9-999-9-9-9--4-4-4-444-4-4-4-----|
d - 4-4-4-444-4-4-4--4-4-4-444-4-4-4--9-9-9-999-9-9-9--4-4-4-444-4-4-4-----|
a - 2-2-2-222-2-2-2--2-2-2-222-2-2-2--7-7-7-777-7-7-7--2-2-2-222-2-2-2-----|
E - -----------------------------------------------------------------------|


1:19 - 1:24

e ----------------------------------------------------|
b-----------------------------------------------------|
g-----------------------------------------------------|
d-------45-4-------45-4-------45-4-------45-4---------|
a--2--5-------2--5-------2--5-------2--5--------------|
E-----------------------------------------------------|


1:24 - 1:33

e ----------------------------------------------------------|
b ----------------------------------------------------------|
g ----------------------------------------------------------|
d --2----------------------45-4-------45-4--2---------------|
a ------5---3---0 ----2--5-------2--5------------5---3------|
E ----------------------------------------------------------|


1:34 - 1:47

e --------------------------------------------------|
b --------------------------------------------------|
g --------------------------------------------------|    x2
d - ------------------------------------------------|
a --2-22-5-4--------2-----2-22-5-4--------2---------|
E -------------3-33---2--------------3-33---2-------|


2:00 - 2:11

e --------------------------------------------------|
b --------------------------------------------------|
g --------------------------------------------------|    x2
d - ------------------------------------------------|
a --2-22-5-4--------2-----2-22-5-4--------2---------|
E -------------3-33---2--------------3-33---2-------|


2:12 - 2:25

e---------------------------------------------------|
b---------------------------------------------------|
g---------------------------------------------------|     x2
d---------------------------------------------------|
a- 22225544------22-----22225544------22------------|
E -----------3333----22-----------3333----22--------|


2:25 - 2:38

e - 2-----2-----2-----2-----22---|
b - 3-----3-----3-----3-----33---|
g - 4-----4-----4-----4-----44---|
d - 4-----4-----4-----4-----44---|
a - 2-----2-----2-----2-----22---|
E - -----------------------------|
            
Submit corrections

↑ Back to top | Tablatures and chords for acoustic guitar and electric guitar, ukulele, drums are parodies/interpretations of the original songs. You may use it for private study, scholarship, research or language learning purposes only