Home » T » The Last Shadow Puppets »

The Last Shadow Puppets - Meeting Place Chords

Artists:  A B C D E F G H I J K L M N O P Q R S T U V W X Y Z # 

Meeting Place Chords

(ver. 1) Click to play this song!
The Last Shadow Puppets
My first tab...

Used chord:

      --8-------------        --7------------         --3-----------|
      --8-------------        -----8---------         --3-----------|
  C   ----9-----------  Em/B  -------9-------   G     ----4---------|
      ------10--------        -------9-------         ------5-------|
      ------10--------        --7------------         ------5-------|
      --8-------------        --7------------         --3-----------|

      --5-------------        --5-------------        --1-----------|
      ----6-----------        --5-------------        ---------3----|
Dm/A  ------7---------  Am    --5-------------   Dm   -----2--------|
      ------7---------        -----7----------        --------------|
      --5-------------        -----7----------        --------------|
      --5-------------        --5-------------        --------------|

      -----3----------        ----------------|
      -----3----------        ----------------|
 G*   ----------------  Em    ----------------|
      ----------------        --2-------------|
      ---2------------        --2-------------|
      -----3----------        ----------------|


 Main riff:

 C     Em/B    Dm/A     Am
 Dm/A  Em/B    Dm/A     G


The Colder the night gets
The further she strays
And he doesn't like it
Being this way

And she tried so hard
To steer away
But her heart had lead her there


Main riff  2 times


She clings to his consciousness
Wherever he lay
Struggles to sleep at night
And during the day

He's worried she's waiting in his dreams
To drag him back to the meeting place
His love had left hin there
Where her voice still echoes

Dm          G*
I'm sorry I met you darling

Dm          G*
I'm sorry I met you

Em
As she turned into the night
All he had was the words

Dm           G*
"I'm sorry I met you darling

Dm           G*
I'm sorry I left you"


Main riff  2 times


Four weeks they had trolled around
Playing the fools
They knew the time would come
And time would be cruel

Because it is cruel to everyone
He is crying out from the meeting place
He stranded himself there
Where the voice still echo

I'm sorry I met you darling
I'm sorry I met you
As she turned into the night
All he had was the words
"I'm sorry I met you darling
I'm sorry I left you"

I'm sorry I met you darling
I'm sorry I've left you

        Enjoy
            
Submit corrections

↑ Back to top | Tablatures and chords for acoustic guitar and electric guitar, ukulele, drums are parodies/interpretations of the original songs. You may use it for private study, scholarship, research or language learning purposes only